Davorin Popovic - Zute Dunje

Transkripcija: Alexandar


Cm                   G
Voljelo se dvoje mladih
Fm          B       D# C7
sest mjeseci, godinu.
       G#           Fm
Kad su htjeli da se uzmu,
      B          D#  C7
da se uzmu, aman aman,
     Fm   F#dim G  Cm
dusmani im ne dadose

Razbolje se lijepa Fatma,
jedinica u majke.
Pozeljela zute dunje,
zute dunje,aman aman
zute dunje iz Stambola

Ode dragi da donese
zute dunje Carigradske.
Al' ga nema tri godine,
tri godine, aman aman,
nit' se javlja niti dolazi

Dodje dragi sa dunjama,
nadje Fatmu na nosilima.
Dvjesto dajem,spustite je,
tristo dajem, otkrijte je.
Da jos jednom Fatmu ljubim ja...


***VERZIJA 2***
Transkripcija: ???


UVOD:
Cm-Fm-Fm-Ab-G-G-Cm

 Cm                   G7
voljelo se dvoje mladih
 Fm       Bb  Eb  C7
sest meseci godinu
 Fm                    Bb
kad su htjeli da se uzmu
                   Eb Edim 
da se uzmu aman , aman        x2
 Fm      Ab     G7      Cm
dusmani im ne dadose

...


***VERZIJA 3***
Transkripcija: tarik (tarik_bruncevic@yahoo.com)


intro:
-8-10-11-10-8--------------------------------------------
--------------11-9-8----------8-9-11-9-8-----------------
---------------------10-8-10-------------10-8-7-8-10-----
---------------------------------------------------------
---------------------------------------------------------
---------------------------------------------------------
               D                   Cm
---------------------------------------------------------
-8-9-8---------------------------------------------------
-------10-8----7-7-7-7-7-7-7-7-----5-5-5-5-5-5-5-5-------
---------------------------------------------------------
---------------------------------------------------------
---------------------------------------------------------

Cm               G7
Voljelo se dvoje mladih
Fm         B     D#
Ses meseci i godinu.
       G#           Fm
Kad su htjeli da se uzmu,
      B7          D#     E dim
da se uzmu, aman, aman,
Fm         F#dim G7  Cm
dusmani im ne    dadose.

Razbolje se lijepa Fatma,
jedinica u majke.
Pozeljela zute dunje,
zute dunje, aman, aman,
zute dunje iz Stambola.

Podje momce da donese
zute dunje carigradske.
Al' ga nema tri godine,
tri godine, aman, aman,
nit' se javlja nit' dolazi.

Dodje dragi sa dunjama,
nadje Fatmu na nosilima.
Dvjesta dajem spustite je,
trista dajem otkrijte je,
da jos jednom Fatmu ljubim ja.


  Cm             G#   G#              Fm
--8-10-11-10-8-------------------------------------------
---------------11-9~~--9-11-13-11-9-8-6------------------
---------------------------------------------------------
---------------------------------------------------------
---------------------------------------------------------
---------------------------------------------------------
 G#     G7  G7    D#
----------------------
-9-11p9-8---6-8p6-4---
----------------------
----------------------
----------------------
----------------------

I GITARA
  Cm             G#   G#              Fm
--8-10-11-10-8-------------------------------------------
---------------11-9~~--9-11-13-11-9-8-6------------------
---------------------------------------------------------
---------------------------------------------------------
---------------------------------------------------------
---------------------------------------------------------
 G#     G7
----------------------
-9-11p9-8-------------
----------------------
----------------------
----------------------
----------------------

II GITARA
  Cm             G#   G#              Fm
-11-13-15-13-11--------------------------------------------
----------------15-13~~--13-15-16-15-13-11-9------------------
---------------------------------------------------------
---------------------------------------------------------
---------------------------------------------------------
---------------------------------------------------------
 G#     G7
----------------------
-13-15p13-12----------
----------------------
----------------------
----------------------
----------------------

SOLIRAJTE U Cm  :) MUZNO MI DA PISEM


obavezno ovako hvatajte akorde  !!!!!

 G7   D#  B7  Edim   F#dim
-3----3---1----3-------2------
-6----4---3----2-------4------
-4----3---1----3-------2------
-3----5---3----2-------4------
-5----6---1------------3------
-3---------------------2------