Deca Losih Muzicara - Ubise Pabla

Transkripcija: Ivan Vasic (ivasic@cent.co.yu)
Home         : http://www.tablature.co.yu



Ako neko zna reci neka posalje OBAVEZNO ! 
Nigde na netu ih nema...



Intro & Verses
E--------5--5---------7--7---------5--5---------7----------------
H--------5--5---------9--9---------5--5---------9----------------
G--------6--6---------9--9---------6--6---------9--------7-------
D--------7--7---------9--9---------7--7---------9------7b-7rp*5--
A--------7--7---5--6--7--7---------7--7---5--6--7---------------7
E--3--4--5--5----------------3--4--5--5--------------------------

*- Release then Pull off 

Ref.

E|-------------5---------------7-------------------------------
H|-------------5---------------9-------------------------------
G|-------------6----7----7/9---9-------------------------------
D|-5----5/7-7--7----7----7/9---9-------------------------------
A|-5----5/7-7--7----5----5/7---7-------------------------------
E|-3--0-3/5-5--5-------7---------------------------------------