Dedic Arsen - Na Balkonu

Transkripcija: alex@online.hr
Bm=Hm, Arsen Dedic i Pun kufer


Intro :
D F#m D F#m Bm F#m G D

Riff.
e|---5----7--5-----7--5-------------------------------| 2x
B|--------------8-------------------------------------|
G|----------------------------------------------------|
D|----------------------------------------------------|
A|----------------------------------------------------|
E|----------------------------------------------------|

e|-----------------7--5-------------------------------|
B|---7-------5--7----------8----7-8--7-8--7-----------|
G|--------7------------------------------------7------|
D|----------------------------------------------------|
A|----------------------------------------------------|
E|----------------------------------------------------|



D                F#m
  Na tvom balkonu, u ranu zoru
D             F#m
  dok prvi bus ide za grad, ja
Bm                F#m
  ne cujem vijesti, ljude na cesti
G                D
  to valjda znaci biti mlad


D               F#m
  ti cistis lice, deru se ptice
D                      F#m
  voda se grije za moj nescaffe
Bm                 F#m
  sve u stanu lici na tvoju mamu
G                  D
  i njenu mladost od ranije



D F#m D F#m Bm F#m G D
Riff.


D               F#m
  ti peres kosu, pjena na nosu,
D                   F#m
  ja pustam muziku sa linije
Bm             F#m
  cekam te dugo, disem polako
G                  D
  nikud ne zurim, to je finije

D                 F#m
  onda me gledas, kraj mene sjedas
D                     F#m
  smijes se blago, pitas sto mi je
Bm               F#m
  na tvom balkonu u ranu zoru
G                D
  lak sam ko pero i dobro mi je