Dejan Cukic - Bez Tebe

Transkripcija: Milan Pavlovic (paparaco@EUnet.yu)
Home         : http://www.yutabs.f2s.com


  Tema:
  Em          G    G                D           C    C
E|----------------|----------------|----------------|----------------|
H|------------12--|(12)------------|----12--15------|----------------|
G|----12--14------|----------------|14----------12--|(12)------------|
D|14--------------|----------------|----------------|----------------|
A|----------------|----------------|----------------|----------------|
E|----------------|----------------|----------------|----------------|
  Em          G    G                D           C    C
E|----------------|----------------|10s-12------12--|(12)------------|
H|------------12--|(12)------------|----------------|----------------|
G|----12--14------|----------------|----------------|----------------|
D|14--------------|----------------|----------------|----------------|
A|----------------|----------------|----------------|----------------|
E|----------------|----------------|----------------|----------------|

  Strofa:
Em   G             D     C
Gledam u nebo nebo gleda me
Em   G             D    C
Sa neba sigurno se vidi sve
Em   G          D     Am
Onaj odozgo verovatno zna
C    D      Em (G D C - samo posle prve strofe)
Kuda si otisla

U sobi hladan vazduh dim i ja
Svetlost u mome srcu zaspala
Mrak je sa obe strane prozora
Otkad si otisla

  Prelaz:
D               G
Pamet mi kaze zaboravi
Am             Em
Al' srce ne slusa
D                  Am
Neka te paze dobri bogovi
C         D    Em
Kad nisam znao ja

  Refren:
  D       G      D       G
I ne znam sta, i ne znam gde
   D      G            Am  Em
Ni sta ni gde da radim bez tebe
  D       G      D       G
I ne znam sta, i ne znam gde
   D      C
Ni sta ni gde bez tebe

  Korisceni akordi:
Em-022000
G -320033
D -XX0232
C -X32010
Am-X02210