Dejan Cukic - Dolazi Tiho

Transkripcija: Milan Pavlovic (paparaco@EUnet.yu)
Home         : http://www.yutabs.f2s.com


  Tema:
  Em          C    C                D           G    G
E|--------12--14--|----15------10--|----------------|----------------|
H|----12----------|----------------|----10------12--|--------12--10--|
G|----------------|----------------|----------------|----------------|
D|----------------|----------------|----------------|----------------|
A|----------------|----------------|----------------|----------------|
E|----------------|----------------|----------------|----------------|
  Em          C    C                D           G    G
E|----------------|----------------|----------------|----------------|
H|------------13--|(13)12----------|----------------|----12--10------|
G|12--------------|--------14--12--|11----------12--|------------12--|
D|--------14------|----------------|----------------|----------------|
A|----------------|----------------|----------------|----------------|
E|----------------|----------------|----------------|----------------|
  Em          C    C                D           G    G
E|----------------|----------------|----10----------|----------------|
H|----12------13--|----10----------|------------12--|--------12--10--|
G|12--------------|------------11--|----------------|----------------|
D|----------------|----------------|----------------|----------------|
A|----------------|----------------|----------------|----------------|
E|----------------|----------------|----------------|----------------|
  Em          C    C                D           G    G
E|----------------|----------------|----------------|----------------|
H|------------13--|(13)12----------|----------------|----------------|
G|12--------------|--------14--12--|11----------12--|----------------|
D|--------14------|----------------|----------------|----------------|
A|----------------|----------------|----------------|----------------|
E|----------------|----------------|----------------|----------------|

  Strofa:
Em C D      G
     Dolazi tiho
Em C     D    G
     Kao stihija
Em C D       G
     Razbija snove
Em C       D   G
     Kao ogledala

  Prelaz 1:
C    D              Em
  To nije stvarnost
C     D
  Ali nije ni san

Pratim vec dugo
Njene pokrete
Nesto me muci
Reci odluke

  Prelaz 2:
C D              Em
  Ja sam u mraku
C    D         H7
  Rusim zidove
H7             Em
  Nesto nije u redu


  Refren:
Em    C    D     G
  Sad znam da je ljubav
Em C        D      G
  Okean sto odnosi sve
Em    C    D     G
  Sad znam da je ljubav
Em C         D    G
  Talas koji nestaje

  Korisceni akordi:
Em-022000
C -X32010
D -XX0232
G -320033
H7-X21202