Dejan Cukic - Ustani

Transkripcija: Milan Pavlovic (paparaco@EUnet.yu)
Home         : http://www.yutabs.f2s.com


  Tema:
E|------------7-8-|10--8---7-------|\
H|----------------|------------8---||
G|----------------|----------------||predtakt
D|----------------|----------------||
A|----------------|----------------||
E|----------------|----------------|/
  Em          C    C                G           G    G
E|7---------------|------------7---|(7)---------7-8-|10--8---7-------|
H|----------------|----------------|----------------|------------8---|
G|------------9---|(9)-7-----------|----------------|----------------|
D|----------------|----------------|----------------|----------------|
A|----------------|----------------|----------------|----------------|
E|----------------|----------------|----------------|----------------|
  Em          C    C                G           G    G
E|7---------------|------------7---|(7)---------7-8-|10--8---7-------|
H|----------------|----------------|----------------|------------8---|
G|------------9---|(9)-7-----------|----------------|----------------|
D|----------------|----------------|----------------|----------------|
A|----------------|----------------|----------------|----------------|
E|----------------|----------------|----------------|----------------|
  Am               Am          C    C                C
E|----------------|----------------|-----------12-14|15--14--12------|
H|9---------------|(9)-12------8---|----------------|------------15--|
G|----------------|----------------|----------------|----------------|
D|----------------|----------------|----------------|----------------|
A|----------------|----------------|----------------|----------------|
E|----------------|----------------|----------------|----------------|
  G           C    C           G    G                G
E|15----------12--|(12)--------15--|(15)------------|(15)------------|
H|----------------|----15----------|----------------|----------------|
G|----------------|----------------|----------------|----------------|
D|----------------|----------------|----------------|----------------|
A|----------------|----------------|----------------|----------------|
E|----------------|----------------|----------------|----------------|

  Strofa:
G
Postelja se ljubi s tvojim ledjima
G
Vole se ko nokat i prst
Am
Ne bi te probudili ni manevri
G
San ti je neopevano cvrst
C
Otkrij se udahni miris ulice
G
Ispod prozora odavno vri
C
Podne je i kafa se ohladila
G
Sta jos treba da te pomeri

  Refren:
    D     C            G
Ustani za sve danas je prolece
Ustani sto pre prolaze godine
Ustani za sve danas je prolece
Promene za sve prolaze godine

  Kraj:
     G
Ustani ...

  Korisceni akordi:
Em-022000
C -X32010
G -320033
Am-X02210
D -XX0232