Direktori - Direktorsko Kolo

Transkripcija: Milan Pavlovic (paparaco@EUnet.yu)
Home         : http://www.yutabs.f2s.com


  Tema :
E|----------------|----------------|*|----------------|/12--12--12-----|
H|----------------|----------------|*|----------------|/12--12--12-----|
G|--------6-------|----------------|*|----------------|/13--13--13-----|
D|7-6-7-9---9-7-6-|------6-7-------|*|9-------9-------|----------------|
A|----------------|9-7-9-----------|*|7-------7-------|----------------|
E|----------------|----------------|*|----------------|----------------|
 /---------ponovi tri puta---------/

  Riffovi :
E|----------------|----------------|*|----------------|/12--12--12-----|
H|----------------|----------------|*|----------------|/12--12--12-----|
G|----------------|----------------|*|----------------|/13--13--13-----|
D|--------6-6-6---|----------------|*|9-------9-------|----------------|
A|7-7-7---4-4-4---|4-4-4-6-7-------|*|7-------7-------|----------------|
E|5-5-5-----------|2-2-2-4-5-------|*|----------------|----------------|
 /---------ponovi tri puta---------/

  Prelaz :
E|----------------|----------------|----------------|----------------|
H|----------------|----------------|----------------|----------------|
G|----------------|----------------|----------------|----------------|
D|7-6---6-7-------|7-6-7-9-7-------|7-6---6-7-6---6-|7-6---6-7-------|
A|----9-----------|----------------|----9-------9---|----9-----------|
E|----------------|----------------|----------------|----------------|

  Kraj :
E|----------------|----------------|----------------|----------------|
H|----------------|----------------|----------------|----------------|
G|----------------|----------------|----------------|----------------|
D|7---7---7---7---|7---------------|----------------|----------------|
A|----------------|----7-----------|----------------|----------------|
E|----------------|--------9---5---|5-------7-------|5---------------|