Direktori - Ide Voz

Transkripcija: Milan Petrovic (comi011@beotel.net)
Album        : Cisticete ulice
  

      A5 D5      A5 D5          D5   G5   D5   A5   D5   G5   C5 H5A5 E5 D5      
  e-------------------------]---------------------------------------------]
  H-------------------------]---------------------------------------------]
  G-----77-7-77----77-7-77--]---777-------777-------777-------5--42--9-7--]
  D---7-77-7-77--7-77-7-77--]---777--555--777--777--777--555--5--42--9-7--]
  A---0-55-5-55--0-55-5-55--]---555--555--555--777--555--555--3--20--7-5--]
  E-------------------------]--------333-------555-------333--------------]
     
                               I kada......   

     D5                  G5                D5                  A5
  solo:
  e---------------------------------------------------------------------------]
  H----10-87----10-87------------------------10-87----10-87-------------------]
  G--7--------7------------7-54----7-54----7--------7------------9-76----9-76-]
  D----------------------5-------5-----------------------------7-------7------]
  A---------------------------------------------------------------------------]
  E---------------------------------------------------------------------------]

     D5                  G5                C5 H5A5 E5 D5
  e------------------------------------------------------------------------]
  H----10-87----10-87-----------------------------5-3----------------------]
  G--7--------7------------7-54----7-54----55-4-2--------------------------]
  D----------------------5-------5-----------------------------------------]
  A------------------------------------------------------------------------]
  E------------------------------------------------------------------------]

      D5  G5    E5   A5     D5   G5   C5 H5A5 E5 D5 
  refren:
  e------------------------------------------------------------------------]
  H------------------------------------------------------------------------]
  G---777-------999---------777--------5--42--9-7--------------------------]
  D---777--555--999--777----777--555---5--42--9-7--------------------------]
  A---555--555--777--777----555--555---3--20--7-5--------------------------]
  E--------333-------555---------333---------------------------------------]

     A ide voz......

  solo u refrenu: 
  e---------------------------------------------------------------------]
  H---787---787-------------------9109---9109---------------------------]
  G--7-----7--------454---454----9-----9--------676---676---------------]
  D----------------5-----5---------------------7-----7------------------]
  A---------------------------------------------------------------------]
  E---------------------------------------------------------------------] 

  e---------------------------------------------------------------------]
  H---787---787------------------------5-3------------------------------]
  G--7-----7--------454---454----55-42----------------------------------]
  D----------------5-----5----------------------------------------------]
  A---------------------------------------------------------------------]
  E---------------------------------------------------------------------]


  Tekst pesme:

  I kada igra Zvezdin tim 
  Mi cemo te uvek voleti
  I kada igra Zvezdin tim
  Mi cemo te uvek bodriti
 
  Da ide voz, da ize voz
  A u vuzu a u vozu 
  Pijani smo skroz