Direktori - Jogurt, Burek

Album        : Evo vam ga
Transkripcija: ivan3


Bass riff:
 D
|---------------------------------|
|---------------------------------|
|---------------------------------|
|-----4-4-5-5-7-------------------|
|-5-5-----------7-7-5-5-4-4-3-3-2-|
|---------------------------------|


Gitara intro riff:
 D             G#  A   G#
|--------------------------|
|-------3-------9--10--9---|
|-----5--(x2)---8--9---8---|
|---4----------------------|
|-5------------------------|
|--------------------------|


/intro riff/
Svakog dana ujutru
D7
Idem ja u pekaru
I uzmem kilo bureka
I jos litar jogurta


Intermezzo:
   D                        A
e|-----10-10-10-10-10-10--|-12----9--9-------------|
H|-----10-10-10-10--------|--------------10-10-----|
G|------------------------|------------------------|
D|------------------------|------------------------|
A|------------------------|------------------------|
E|------------------------|------------------------|

   D                        A
e|-----10-10-10-10-10-10--|-12----10--9------------|
H|-----10-10-10-10--------|---------------12-10----|
G|o-----------------------|-----------------------o| (3x)
D|o-----------------------|-----------------------o|
A|------------------------|------------------------|
E|------------------------|------------------------|


D5          E5 C#5
Svakog dana ujutru
Idem ja u pekaru
I uzmem kilo bureka
I jos litar jogurta

D5       H5       A5       E5
Dajte mi jogurt i burek sa sirom
G5 A5     D5 A5
Za poneti sa papirom


-Intermezzo-

D5           E5  C#5      
Svi ljudi iz pekare
Znaju moje nemire
Dobijem odma' burek sa sirom
I posle mogu da idem s mirom


Refren:
Dajte mi jogurt i burek sa sirom
Za poneti sa papirom
Napolju nema da bude red
Kad ja dobijam svojeg ??


C#5          D5
Sve dok bude finih sira
A5    G#5
Bi'ce ??? i mira
Sve dok mi je dubok dzep
???

Intermezzo

Svako tol'ko ned'lju dana
Najdem se preko plana
Jedem, pijem pivice
To na meni vidi se

Refren x2