Direktori - Ko Te Tovari Sad

Transkripcija: mijat_b@msn.com

Prosto sam morao ovo napraviti! Pa to je sramota sto ima tako malo
tablatura od Direktora! Ko zna nesto nek mi posalje na:
mijat_b@msn.com || mijat_j.hetfield


Ovo je uvodni riff,mislim da ide 8 puta
--------------------
--------------------
-------------------- 
-------------------- x8
-----3-3-----5------
-0---1-1--0--3------

Druga gitara
---------------------------------------------------------
---------------------------------------------------------
---------------------------------------------------------
---------------------------------------------------------
----7---5---3---5--5-5-5----------7---5---3-x-x--5-5-5-5-
-0--5-0-3-0-1-0-3--3-3-3----0-0--5-0-3-0-1-x-x--3-5-3-3--

Ovo ide zadnji put 
-------------------------------
-------------------------------
------------------------------- 
-------------7--5--4--2-2-2-2--
------7---5--5--3--2--0-0-0-0--
-0-0-5-0-3---------------------

... pa
----------------------------------
----------------------------------
----------------------------------
--7-7-7-7-7-7-7-------------------
--5-5-5-5-5-5-5-7-----------------
-----------------5--5-8\5-8-8-8\5-
  
             Pa ovo         -----------------------
----------------------      -----------------------
----------------------      -----------------------
----------------------      ---7-7-5-4-2-----------
---7--5>7-------------      ---5-5-3-2-0-----------
---5--3>5----7--5>7---      -----------------------
-------------5--3>5---

----------------------------|--------------------------------
----------------------------|--------------------------------
----------------------------|--------------------------------
--7--xxxx-------------------|--------7--5---x3----5-5-5-5-2--
--5--xxxx--7-7-7-7-7-7-7-7--|----7-7-5-3-------5--3-3-3-3-0--
-----------5-5-5-5-5-5-5-5--|----5-5-----------3-------------