Direktori - Volimo Pivo

Transkripcija: Milan Petrovic (comi011@beotel.net)
Album        : Lesli se vraca kuci


                               G5          C5                 D5                
   e-----------------------]-------------------------------]-------]
   H-----------------------]-------------------------------]-------]
   G-----------------------]----------------5-----------5--]---7---]
   D---------------0----2--]----55-55-55----5-----------5--]---7---]
   A-----2----3------------]----55-55-55----3---5-5/7-5-3--]---5---]
   E---33---33---33---33---]----33-33-33-------------------]-------]
            
                               Kada pijem p...                Ma nisam mo....
                               Picu pivo i.....               Sidji dole.... 
                               U ekipi mojoj...               Ali oni ipak...
       G5                          D5           G5    F5 G5     

   e---------------------------------------------------------------]
   H---------------------------------------------------------------]
   G-------------------------------77-77-777-----------------------]
   D---55-55-55-5----55-55-55------77-77-777----55-55--3--5--------]
   A---55-55-55-5----55-55-55------55-55-555----55-55--3--5--------]
   E---33-33-33-3----33-33-33-------------------33-33--1--3--------]

       Jetra mi je................kamen je......jebe...ke vu!


   solo:
   
   e---------------------------------------------------------------]
   H---------------------------------------------------------------]
   G-------------------------------------------4-5-77\9-7-5--------]
   D-------------------------------55-75---55-7--------------------]
   A---------------2-3-55\7-53-------------------------------------]
   E---33-53---33-5------------------------------------------------]


   e---------------------------------------------------------------]
   H---------------------------------------------------------------]
   G------------------5-4-5-7\9-7-5-----77-55-44-55----7\97-5-4----]
   D---55-44-55-77---------------------------------------------5---]
   A---------------------------------------------------------------]
   E---------------------------------------------------------------]


       H5     C5       A5     H5     H5      C5       H5  A5  G5
  
   e---------------------------------------------------------------]
   H---------------------------------------------------------------]
   G---------------------------------------------------------------]
   D---9-xxx--10-10----7-xxx--9-9-----9-xxx--10-10----9-x-7-x-5----]
   A---9-xxx--10-10----7-xxx--9-9-----9-xxx--10-10----9-x-7-x-5----]
   E---7-xxx--8--8-----5-xxx--7-7-----7-xxx--8--8-----7-0-5-0-3----]
   
       Mi vi...pivo    mi vol..pivo   mi vol..pivo  i pivo voli nas 

   ...ovo su kao neke medju solazice... :)))
   ...nisu solazice al nesto izmedju strofa...

   e-----------------------]---------------------------------------]
   H-----------------------]---------------------------------------]
   G--------------77-x-7---]------------------------------2P0------]
   D--------0-----77-x-7---]------------------------0-0-00---------]
   A---3p2--------55-x-5---]---------3P2-------3P2-----------------]
   E--3---3----------------]---3-3-33----3-3-33--------------------]

   
   ..ovo je kao neka zavrsna solazica...:))

   e------7----------------7--------------7----------------7-------]
   H--8----878-787----8-10---8---8-8-------878-787----8-10---8-----]
   G--------------7-------------7-7---------------7----------------]
   D---------------------------------------------------------------]
   A---------------------------------------------------------------]
   E---------------------------------------------------------------]

   ..ovo je sam kraj pesme.. :)
    
   e---------------------------]
   H---------------------------]
   G---------------------------]
   D---------------------------]
   A---2-202-3--2--------------]
   E--------------3------------]


  

   tekst pesme:
  
   Kada pijem pivo ponosito stojim
   Posle sedme flase prestajem da brojim
   Lekar mi je rekao da prestanem da pijem
   Ma nisam mogao da se smirim poceh da ga bijem!

   Picu pivo i na nebu jer to je divota
   Bicu veran pivu do kraja zivota
   Sveti Petre eto mene skoro cu ti doci
   Sidji dole sacekaj me peske necu moci!
  
   Jetra mi je propala
   Imam cir na crevu
   Kamen je u bubregu
   Jebem li mu kevu!

   U ekipi mojoj isti dripci kao ja
   Prodali bi kevu za gajbu piva
   Pamet ce izgubiti u jecmu i u hmelju
   Ali oni ipak slozno pevaju....
  
   MI VOLIMO PIVO I PIVO VOLI NAS!!!


   Napomena: pesmu sam skidao na akusticnoj gitari, 
             tako da je moguce da se nesto svira 
             drugacije ali ovo bi trebalo da bude
             najpribliznije...bar sam se trudio da bude! :))