Divljan Vlada - Rusija

Transkripcija: Aleksej Kisjuhas (paulalex@EUnet.yu)
Home         : http://2akordi.net


Uvod i prelaz posle svake strofe (2x):

e---3---1-0-------|---------------0---|--
H-----------3-----|--1--3---1-h-3-----|--
G--------------0--|-------------------|--
D-----------------|-------------------|--
A-----------------|-------------------|--
E-----------------|-------------------|--

e---3---1-0-------|-------------------|--
H-----------3-----|--1---0------------|--
G--------------0--|-------------------|--
D-----------------|----------2--------|--
A-----------------|-------------------|--
E-----------------|-------------------|--


 Am       Dm   F       G   C
Bakiceva ulica vec je zaspala
 Am          Dm      F        G    C
Senke se pritajile, svetlost zgusnula
 Am        Dm      F     G   C
Nasa tiha soba se tek probudila
 Am        Dm      F    G  C
Nasa tiha soba je zatreperila


Ja sam jos studirao, ona je radila
Nocu sam joj citao A. Fadejeva
Nekad bi se cudila mojim pesmama
Nije mi dopustala da se zamaram

Nama Nova godina nista nije donela
Kao da se zbunila il se rugala
Nama Nova godina nista nije donela
Po nebu smo trazili svetlost vostoka

Imala je snaznije ruke nego ja
Imala je snaznije ruke nego ja 
Nije mi dopustila da je savladam
NIje mi dozvolila da je savladam