Divlje Jagode - Bihac `95

Transkripcija: Grile (Grile16@hotmail.com)
Poslao       : Emir Maslo


Ovoj je moj prvi tab pa sugestije,zamjerke 
i uopste sve kritike rado prihvatam.

|--------------------------------------------|
|--------------------------------------------|
|--------------------------------------------|
|--------------------------------------------|X4
|----3--0-5-5-3--0-5-5-3--------3------------|
|-5------------------------0--3---5----------|

|--------------------------------------------|
|--------------------------------------------|
|--------------------------------------------|
|-3-2---------2-3---2------------------------|X2
|-----5-4---5-----5-----5-4-------5-4--------|
|----------------------------6-5-------6-5---|

|--------------------------------------------|
|--------------------------------------------|
|--------------------------------------------|
|--------------------------------------------|X3
|--------------------------------------------|
|--0-3--0--5-5-3--0-5-5-3---0----------------|

|--------------------------------------------|
|--------------------------------------------|
|--------------------------------------------|
|----------------3-2----2--------------------|
|---------------------5----5-4--5-4----4-----|
|--0-3--0--5-5-3---------------------6---6-5-|


|--------------------------------------------|
|--------------------------------------------|
|--------------------------------------------|
|--------------------------------------------|X4
|----3--0-5-5-3--0-5-5-3--------3------------|
|-5------------------------0--3---5----------|

|--------------------------------------------|
|--------------------------------------------|
|--------------------------------------------|
|-3-2---------2-3---2------------------------|X2
|-----5-4---5-----5-----5-4-------5-4--------|
|----------------------------6-5-------6-5---|

|--------------------------------------------|
|--------------------------------------------|
|--------------------------------------------|
|--------------------------------------------|X3
|--------------------------------------------|
|--0-3--0--5-5-3--0-5-5-3---0----------------|

|--------------------------------------------|
|--------------------------------------------|
|--------------------------------------------|
|----------------3-2----2--------------------|
|---------------------5----5-4--5-4----4-----|
|--0-3--0--5-5-3---------------------6---6-5-|

|--------------------------------------------|
|--------------------------------------------|
|--------------------------------------------|
|--3-2----2-------------------2--------------|
|-------5----5-4--5-4----4----2--------------|
|----------------------6---6--0--------------|



|--------------------------------------------|
|--------------------------------------------|
|--------------------------------------------|
|------------------X8----7-6--------7-6------|
|--5h7-7-8-7-5---------5-----8-7--5-----8-7--|
|-(0)-(0)-(0)--------------------------------|


|--------------------------------------------|
|--------------------------------------------|
|--------------------------------------------|
|----7-6-----------6-7-6---6-----------------|
|--5-----8-7---7-8-------8---8---------------|
|--------------------------------------------|

Kraj pjesme zajedno sa solom mi je malo nejasan 
tako da ga nisam pisao.