Divlje Jagode - Cekam Da Sunce Zadje

Transkripcija: Partibrejkers


Tekst:
    Strofa:
    Vec dugo cekam zalazak sunca
    Da podjem tebi na bijelome konju
    Da te vidim njeznu i lijepu
    U vrtu ruza na mojim grudima
    
    Bridge:
    A ja ja, ja ja
    
    Strofa:
    Tvoje usne kao secer
    Zelim ljubit sve do jutra
    A onda zbogom kazat cu ti
    I nikad vise necu doci


Uvod: (ovaj riff se svira i u strofi)

e-----5-------5p2---------5-------5--5-2----------
H-----5-------5p2---------5-------5--5-2----------
G-------------------------------------------------
D-------------------------------------------------
A-4-4-----2-2---------4-4------2------------------
E-2-2-----0-0---------2-2------0------------------
 pm..    pm..        pm..     pm

2x^

  tr     tr      tr      tr
e--------------------------------------------------
H-7------9-------10------12------------------------
G-9b11---11b13---12b14---14b16---------------------
D--------------------------------------------------
A--------------------------------------------------
E--------------------------------------------------
(drzis g-zicu i sviras samo h-zicu sa tremolopicking)

e--------------------------------------------------
H--------------------------------------------------
G--------------------------------------------------
D--------------------------------------------------
A-------------------------2-2-2-2-0-0-0-0-4-4-4-4--
E-2-2-2-2-5-5-5-5-4-4-4-4--------------------------

e--------------------------------------------------
H--------------------------------------------------
G--------------------------------------------------
D-------------------------4-4-4-4-3-3-3-3-6-6-6-6--
A-2-2-2-2-5-5-5-5-4-4-4-4--------------------------
E--------------------------------------------------

e-----------------------------------------------------
H-----------------------------------------------------
G-----------------------------------------------------
D-4-4-4-4-7-7-7-7-6-6-6-6-9-9-9-9-7-7-7-7-11-11-11-11-
A-----------------------------------------------------
E-----------------------------------------------------

e--------------------------------------------------
H-------------------------7-7-7-7-6-6-6-6-9-9-9-9--
G---------7-7-7-7-6-6-6-6--------------------------
D-9-9-9-9------------------------------------------
A--------------------------------------------------
E--------------------------------------------------

e--------------------------------------------------
H-7-----9b10--9-7-----7b9--7~----------------------
G-----------------10-------------------------------
D--------------------------------------------------
A--------------------------------------------------
E--------------------------------------------------

Strofa (riff)

Bridge: A5 G#5

Fill 1
e--------------------------------------------------
H--------------------------------------------------
G-4b6----------------2-----------------------------
D------7p4----2-4-4------0--2h4--------------------
A--------------------------------------------------
E--------------------------------------------------

Bridge

Fill 2
e--------------------------------------------------
H--------------------------------------------------
G-9b11---9~----------------------------------------
D------------7h9-----------------------------------
A-----------------7h9------------------------------
E----------------------5h7\/-----------------------
                        Vibrato

Strofa

Bridge

Fill 3
e----------------------------------------------------------
H-10--12b14--10------------------------------10b12---------
G---------------11------9--11-11-----9--11p9----------9-11-
D--------------------11-----------11---------------11------
A----------------------------------------------------------
E----------------------------------------------------------

Bridge

Fill 4
e--------------------------------------------------
H-17b19--17b19~---17h19---17--15-------------------
G---------------------------------16\--------------
D--------------------------------------------------
A--------------------------------------------------
E--------------------------------------------------

Bridge : D5 E5 (7. polje)

e--------------------------------------------------
H-15------17---------------------------------------
G-17b19---19b21------------------------------------
D--------------------------------------------------
A--------------------------------------------------
E--------------------------------------------------

Solo (gitara)
e--------------------------------------------------
H-14--17b19--17--14-17-----------------------------
G----------------------16-14-----------------------
D----------------------------16------14-14---------
A---------------------------------16-------16------
E--------------------------------------------------

e----------------------------------------------------------
H-------------------------10--12b14--12b14-----12-10-------
G-14----------11b13--11---------------------11-------11-11-
D--------14------------------------------------------------
A-----16---------------------------------------------------
E----------------------------------------------------------

e----------14---------------------------14--17b19-17--14--17b19---17-
H-------14-----17b19--17b19--17b19r17--------------------------------
G-14b16--------------------------------------------------------------
D--------------------------------------------------------------------
A--------------------------------------------------------------------
E--------------------------------------------------------------------

e-14-17b19--17--------------------------------------------
H--------------14-17--------------------------------------
G--------------------16-14----------------------14b16-----
D--------------------------16--14-16-16--16-14---------16-
A---------------------------------------------------------
E---------------------------------------------------------

e----------14--------------------------------------
H-------14----17-14--------------------------------
G-14b16-------------17-16-14-----------------------
D----------------------------16-14-----------------
A----------------------------------16-15-14-12~----
E--------------------------------------------------

klavir nastavlja da svira solo, riz strofe je pratnja

Strofa

Bridge

Fill 5

e--17b19---10h12--------------------------
H------------------10--12b14--12b14-------
G------------------------------------11---
D-----------------------------------------
A-----------------------------------------
E-----------------------------------------

Bridge

Fill6
e--------------------------------------------------------------------
H--------------------------------------------------------------------
G-14-16b18----------------------------------14b16--------------------
D-----------16------14--16-16------14--14---------------14--16--16---
A----------------16------------16-------------------16---------------
E--------------------------------------------------------------------
                               pm
Bridge

Fill 7
e-----------------------------------------------------------
H-17b19----14-17--------------------------------------------
G----------------16-------------------14b16--------14b16----
D-------------------16------14-14---------------14-------16-
A------------------------16-------16---------16-------------
E-----------------------------------------------------------

Bridge

Fill 8
e------------------------------------
H------------------------------------
G-4b6-4b6---------------2------------
D----------7p4---2--4------0--2h4----
A------------------------------------
E------------------------------------

Kraj: F#5

  tr
e----------------------2-----------2-----------2-----
H-2------------------2---5p2-----2---5p2-----2---5p2-
G-4b6---4b6r4-2--4b6---------4b6---------4b6---------
D----------------------------------------------------
A----------------------------------------------------
E----------------------------------------------------

e--------------------------------------------------
H--------------------------------------------------
G-4b6r4--2----4b6r4-2---4b6r4-2----4b6-------------
D----------4----------4---------4--------2b4-------
A------------------------------------------------4-
E------------------------------------------------2-