Divlje Jagode - Divlje Jagode

Transkripcija: Adrijan J. (djole_12@yahoo.com)
Home         : http://2akordi.net



U malom vrtu raste divlji plod  Dm, C, B, Dm
U tom plodu sjeme cudesno       Dm, C, B, Dm
Neka ruka sjeme posija          Dm, C, B, Dm
I jagode sunce obasja.          C, B, Dm

Gm, Dm, F, Gm, Gm, Dm, C, Dm
Laj, laj, laj laj laj, laj, laj la      2x

(Instrumental)
A-5--5--8--5-----5-----5--5--8--5-----5-----
E-------------8--------------------5--------     2x

Tiho rastu divlje jagode                Dm, C, B, Dm
Tek nesto rose prati njihov put         Dm, C, B, Dm
Sve prolazi, a mi ne bi htjeli          Dm, C, B, Dm
Jos divljega dok ima u nama.            C, B, Dm

Refren:
Divlje jagode,          B, Dm
Divlje jagode,          B, Dm   2x

Gm, Dm, F, Gm, Gm, Dm, C, Dm
Laj, laj, laj laj laj, laj, laj la      2x

Refren:
Divlje jagode,          B, Dm
Divlje jagode,          B, Dm   2x

Refren:
Divlje jagode,          B, Dm
Divlje jagode,          B, Dm   2x


***VERZIJA 2***
Transkripcija: NEred_source


Rhythm Guitar

  |glavna tema                   3x|prateca git.za uvodni solo
E||-------------------------------||----------------------|----
B||-------------------------------||----------------------|----
G||------------------------------*||----------------------|----
D||-----------------------3------*||-----------------8----|--7-
A||--5-5-3-5---3--5-5-3-5---0-3---||-------5----8---------|----
E||-------------------------------||--6-------------------|----

Solo Guitar
                      3x
E||-------------------||----------------------------------|------|
B||-------------------||--13b---13br--10h11-10-11-10------|------|
G||------------------*||-----------------------------10-9-|------|
D||------------------*||----------------------------------|--12--|
A||-------------------||----------------------------------|------|
E||-------------------||----------------------------------|------|


***VERZIJA 3***
Transkripcija: DAVOR

* ovo je ona prva verzija divljih jagoda
* sa albuma "divlje jagode"

* ovaj uvod se svira zajedno sa klavijaturom

E-------------------------|
H-------------------------|
G-------------------------| 4X
D---------------------3---|
A-5-5-3-5-0-3-5-5-3-5---3-|
E-------------------------|

E-----------------------|--------------|
H-----------------------|--------------|
G-----------------------|--------------|
D-------3--S8-7-3-2-3---|----3-2-3-2---|
A--1--5-----------------|1-5---------5-|
E-----------------------|--------------|

Dm             C     B    Dm
U malom vrtu raste divlji plod
E-------------------------|
H-------------------------|
G-------------------------|
D---------------------3---|
A-5-5-3-5-0-3-5-5-3-5---3-|
E-------------------------|

Dm            C    B  Dm
u tom plodu sjeme cudesno
E-------------------------|
H-------------------------|
G-------------------------|
D---------------------3---|
A-5-5-3-5-0-3-5-5-3-5---3-|
E-------------------------|

Dm         C     B  Dm
neka ruka sjeme posija
E-------------------------|
H-------------------------|
G-------------------------|
D---------------------3---|
A-5-5-3-5-0-3-5-5-3-5---3-|
E-------------------------|

C          B     Dm
pet jagoda sunce obasja
E-------------------------|
H-------------------------|
G-------------------------| 4X
D---------------------3---|
A-5-5-3-5-0-3-5-5-3-5---3-|
E-------------------------|

   B        Dm
   Divlje jagode
E------------------|
H-10-10-8-|--8-8-6-|
G------------------|
  Divlje jagode
E------------------|
H-10-10-8-|--8-8-6-|
G------------------|

Gm, Dm, F, Gm, Gm, Dm, C, Dm
Laj, laj, laj laj laj, laj, laj la      2x

divlje jagode............