Divlje Jagode - Dodirni Me, Skloni Bol

Transkripcija: Stojan Babic - jelenpivo6@hotmail.com


Uvod:
E||-----------------------------|--3------------------|---------------------|
B||--------4--4-----4-----------|--4--------3h4-------|----------3----------|
G||--------5--5-----3h5p3-------|--5------------------|-------------3-------|
D||--3--5--------5---------5/---|--5------------------|----------------3----|
A||-----------------------------|--3------------------|---------------------|
E||-----------------------------|--3------------------|---------------------|


   --3------------------|---------------------|
   --4--------3h4-------|----------3----------|
   --5------------------|-------------3-------|
   --5------------------|----------------3----|
   --3------------------|---------------------|
   --3------------------|---------------------|


Cm            A#
Osjecam pasce noc
A#        Gm      Cm
I srce ce    kleti mrak

G|-----------------
D|-------8---------
A|-8h10-----8b-----
E|--------------8-- Bass

ne razumem dalje tekst u glavnom akordi su isti, i ima jedan mali fill.

Fill
e|--------------
B|-4-4-4-4p3----
G|-3-3-3-3---3--
D|--------------
A|--------------
E|--------------

a onda ide prelaz:

Fm       G 
Proci ce sve....


D#5             F5
Mirise nebo kao cvet
F5       D#5 D5 C5
Tuzan je grlica let
C5 D5 D#5               F5 
      Mirise ljubicasti ???? (ne znam sta kaze)
F5      G5*       C5*
Ti i ja zgazicemo sve....

korisceni akordi          

     Cm   A#   Gm   Fm      D#5  F5    D5   C5      G5*   C5*      
E||--3----6----3----1----|-----------------------|--------------||
B||--4----6----3----1----|-----------------------|--------------||
G||--5----7----3----1----|-----------------------|--------------||
D||--5----8----5----3----|--8----10----7----5----|--12----------||
A||--3----8----5----3----|--6----8-----5----3----|--10----10----||
E||--3----6----3----1----|-----------------------|--------8-----||
                         |kad pocne sa distorzijom 

malo sam promenio nacin sviranja ovog dela sa distorzijom 


Solo
                                     b=1/2           b=1/2
E||------------------------------------------|--------------|
B||------------------------------------------|--------------|
G||--3h5--------5--3-------------------------|-5-----7b--5--|
D||--------3h5----------3------3--5----------|----5---------|
A||-------------------------3--------5br--3--|--------------|
E||------------------------------------------|--------------|


        b=1                                  b=1     b=1/2
   ---------------------------------------------------------|
   ----11br---11p8-11-----8h11-------------------11---------|
   -----------*------------------8h10----8--10b------7b--5--|
   ---------------------------------------------------------|
   ---------------------------------------------------------|
   ---------------------------------------------------------|

b=...  oznacava za koliko treba nategnuti zicu (za pola tona,ili citav)
*=ne okidati 
h=hammer
p=pull off
_____
Tekst: napisao, Gost

Osjecam, pasce noc
Iz vrta ce kleti mrak
Kisa ce mimo nas
Magican slutim znak.

Proci ce sve ...

Mirise nebo kao cvijet
Tuzan je grlica let
Mirise ljubicasti dan
Ti i ja zgazit cemo san.

Dodirni me, skloni bol
Tisti me ova laz
Zvijezde su protiv nas
Nista tu nema draz.

Proci ce sve ...

Mirise nebo kao cvijet
Tuzan je grlica let
Mirise ljubicasti dan
Ti i ja zgazit cemo san.

Proci ce sve ...

Mirise nebo kao cvijet
Tuzan je grlica let
Mirise ljubicasti dan
Ti i ja zgazit cemo san.