Divlje Jagode - Krivo Je More

Transkripcija:Mr.Z  mr.z@mindless.com
Home         :http://2akordi.net/


 G             Am      C             G
 Ti, ti si ga upoznala jedne ljetnje veceri
 G           Am         C         G
 On, on te poljubio dok more se pjenilo
 Em           D       Em               D
 I ti si se zaljubila mada nisi htjela to
 C         G
 Krivo je more.

 Znaj, ljeto je varljivo, a srce ti je zavodljivo
 Kuci kad si dosla ti, znala si da si u zabludi
 A to vece uz mora sum, od srece sva si blistala
 Krivo je more.

 Znaj, ljeto je varljivo, a srce ti je zavodljivo
 Kuci kad si dosla ti, znala si da si u zabludi
 A to vece uz mora sum, od srece sva si blistala
 Krivo je more.

 SOLO:
 G-D-Em-C-G-D-H-H7-Em-C-D


***VERZIJA 2***
Transkripcija: SkaR (rudolf.jurisic@ck.hinet.hr)


 G             Am
 Ti, ti si ga upoznala
  C             G
 jedne ljetnje veceri
 G           Am
 On, on te poljubio
  C         G
 dok more se pjenilo
 ***
 Em           D
 I ti si se zaljubila
  Em               D
 mada nisi htjela to
 C         G
 Krivo je more.

 *** :

    D|-------------------------------
    A|-----5--7-------------------5--
    E|--7----------------------------
               ... i ti si se zaljubila..


    D|--4h5p4--------------------------
    A|---------5-7------------------5--
    E|---------------------------------
               ... mada nisi htjela to...

    D|--4h5p4--------------------
    A|---------5-3----------(10)-
    E|---------------------------
               ... krivo je more..

 Znaj, ljeto je varljivo
 a srce ti zavodljivo
 Kuci kad si dosla ti
 znala si da si u zabludi
 A to vece uz mora sum
 od srece sva si blistala
 Krivo je more.

 Znaj, ljeto je varljivo
 a srce ti je zavodljivo
 Kuci kad si dosla ti,
 znala si da si u zabludi
 A to vece uz mora sum
 od srece sva si blistala
 Krivo je more.

 SOLO:
       G D Em C G D
       H H7 Em D C D

E|-------------------------------7-8----8-7----7----
B|--10b12--10b12r10--8p7h8----10-----------8----10--
G|------------------------------------------7-------
D|--------------------------------------------------
A|--------------------------------------------------
E|--------------------------------------------------

E|--7h8p7-------------------------------------------
B|---------7-7---10p7-8---7-------------------------
G|----------------------------9----7-7---5-4-2--(0)-
D|--------------------------------------------------
A|--------------------------------------------------
E|--------------------------------------------------

***VERZIJA 3***
Transkripcija: Carobnjak

SOLO:
-|---------|---------------|-----------------------------|
-|---------|---------------|----10-13--13-12-10----12r10\|
-|-b15-b14-|12h14r12\11/12-|-12-----------------12-------|
-|---------|---------------|-----------------------------|
-|---------|---------------|-----------------------------|
-|---------|---------------|-----------------------------|

           I ovaj dio brzo I
-|--------------------------------------------|
-|-10/12/13\12-8b10-7b8-7---------------------|
-|------------------------b9b9b9b9--b7-5-4----|
-|-----------------------------------------7--|
-|--------------------------------------------|
-|--------------------------------------------|

***VERZIJA 4***
Transkripcija: Nogola
Info         : Krivo je more, verzija 2004

1.solo
E---------------------------------------------------------
B---------------------------------------------------------
G-----4-4h5p4-----------------2s4-5-7-4-5-4h5p4-----------
D-7b9--------7-5-4-5--4h5p4--------------------7--7p4-5---
A--------------------------7----------------------------5-
E---------------------------------------------------------

E-------------------------7-----------7h8h10p7h8-8-10-7---
B-4s7h8h10p7--------4s7-8--7h8--7h8h10--------------------
G-----------8---------------------------------------------
D------------9-8-7----------------------------------------
A---------------------------------------------------------
E-------1-------------------------------------------------

E-7h8p7---------------------------------------------------
B-------10------------------------------------------------
G---------7-7-7-7s9-9-9-9s11-11-11-11s12-12s14-12---------
D---------------------------------------------------------
A---------------------------------------------------------
E---------------------------------------------------------