Divlje Jagode - Living In My Dreams

Transkripcija: Partibrejkers


Uvod
E-----------------------------------------------
H-----------------------------------------------
G----------------------------------------------- 3 puta
D--------------0h2----3 puta--------------------
A-\----2--2-2-------------------3-2-3-2-3-2-----
E-\----0--0-0-------------------------------3-2-
         pm..

E--------------------------------------------------
H--------------------------------------------------
G----------------5---------------------------------
D----------0h2---5--5------------------------------
A--2--2-2--------3--5------------------------------
E--0--0-0-----------3------------------------------
     pm..

Solo gitara uvod
E-------10b12-----17b19--12-------------------
H---------------------------------------------
G---------------------------------------------
D---------------------------------------------
A---------------------------------------------
E---------------------------------------------

Strofa
E---------------------------------------------
H---------------------------------------------
G-------7-7----------------------------------- 3 puta
D-2-2---7-7------------0h2--------------------
A-2-2---5-5----2--2-2-------2--2-2--0h2-5-----
E-0-0----------0--0-0-------0--0-0------------

cetvrti put:
E----------------------------------------------
H----------------------------------------------
G------7-7---5--4--2---------------------------
D-2-2--7-7---5--4--2---------------------------
A-2-2--5-5---3--2--0----0-2-3-0-2---0----------
E-0-0-----------------------------3---2--------
                       pm..............

Like a blind man in the cell
I wonder how I wonder when
To turn the day into the night
To live my life with no pain


Refren:
E---------------------------------------------
H---------------------------------------------
G-------5-5-------7-7--x--5-------------------
D-2-2---5-5--5-5--7-7--x--5-------------------
A-2-2---3-3--5-5--5-5--x--3-------------------
E-0-0--------3-3------------------------------

                  AH
E-----------------8----------------------------
H----------------------------------------------
G-------5-5------------------------------------
D-2-2---5-5--5-5-------9-7---------------------
A-2-2---3-3--5-5-----------10-9-7--------------
E-0-0--------3-3-------------------------------
                      pm.........

E---------------------------------------------
H---------------------------------------------
G-------5-5-------7-7--x--5-------------------
D-2-2---5-5--5-5--7-7--x--5-------------------
A-2-2---3-3--5-5--5-5--x--3-------------------
E-0-0--------3-3------------------------------

E---------------------------------------------
H---------------------------------------------
G-------5-5-------7---------------------------
D-2-2---5-5--5-5--7---------------------------
A-2-2---3-3--5-5--5-------------\-------------
E-0-0--------3-3----------------\-------------


Here I am
Bouncing out of time
Here I am
Flying high above the sun

Here I am
Falling on the edge
Here I am
Dancing on my head

Living in my dreams
In my dreams

Questions and all
That's either said
Pulling me the hour
Out of line

Searching for instance
I can't find
To live my life with no hate

Solo
E-0h7-5h7-3h5-2h3----0h7-5h7-3h5-2h3----------
H---------------------------------------------
G---------------------------------------------
D---------------------------------------------
A---------------------------------------------
E---------------------------------------------

E-0h2h3h5/7-8p7p5-5h7-3h5-2h3p2p0h2-----------
H-----------------------------------3---------
G---------------------------------------------
D---------------------------------------------
A---------------------------------------------
E---------------------------------------------

E-0h7-5h7-3h5p3p2h3----0h7-5h7-3h5p3p2h3------
H---------------------------------------------
G---------------------------------------------
D---------------------------------------------
A---------------------------------------------
E---------------------------------------------

E--0h2h3h5/7-8p7p5-5h7-3h5-3b-----------------
H---------------------------------------------
G---------------------------------------------
D---------------------------------------------
A---------------------------------------------
E---------------------------------------------

E-------------------------------------------------------------
H--15---------------------------------------------------------
G--14b16--12/14-14-14-14b---------12-----14-----12------14-12-
D---------------------12b---12/14----14------14----14---------
A-------------------------------------------------------------
E-------------------------------------------------------------

E-------10-10-10-10------------------------------
H-10/12-------------12-10-8-10----10-------------
G------------------------------12----9-----------
D------------------------------------------------
A------------------------------------------------
E------------------------------------------------

E-------------12----10----------------------------
H-10/12-12-12----12----12-10----------------------
G----------------------------12--9--12b-----------
D-------------------------------------------------
A-------------------------------------------------
E-------------------------------------------------

E-------------------------------------------------
H-------------------------------------------------
G-------------------------11-11-11-11-11-11-11-11-
D-14-14-14-14-14-14-14-14-------------------------
A-------------------------------------------------
E-------------------------------------------------

E--------------------------------------------------
H--------------------------------------------------
G-12-12-12-12-12-12-12-12--14-14-14-14-14-14-14-14-
D--------------------------------------------------
A--------------------------------------------------
E--------------------------------------------------

E-------------------------------------------------
H-12-12-12-12-12-12-12-12-13-13-13-13-13-13-13-13-
G-------------------------------------------------
D-------------------------------------------------
A-------------------------------------------------
E-------------------------------------------------

E-------------------------------------------------
H-15-15-15-15-15-15-15-15-17-17-17-17-17-17-17-17-
G-------------------------------------------------
D-------------------------------------------------
A-------------------------------------------------
E-------------------------------------------------

E-14-14-14-14-14-14-14-14-15-15-15-15-15-15-15-15-
H-------------------------------------------------
G-------------------------------------------------
D-------------------------------------------------
A-------------------------------------------------
E-------------------------------------------------

E--17-17-17-17-17-17-17-17-19-19-19-19-19-19-19-19-
H--------------------------------------------------
G--------------------------------------------------
D--------------------------------------------------
A--------------------------------------------------
E--------------------------------------------------

E-20-20-20-20-20-20-20-20-22-22b24------------
H---------------------------------------------
G---------------------------------------------
D---------------------------------------------
A---------------------------------------------
E---------------------------------------------

Refren:

Em C G D


Em - x79997
C  - x35553
G  - 355433
D  - x57775