Divlje Jagode - Ljubavi, Daj Mi Ljubavi

Transkripcija: haris ljijic
Poslao       : tarik(tarik_bruncevic@yahoo.com)


Uvod:
e|----------------------
h|----------------------
g|----------------------
d|-0h2-0----------------
a|-------2p1p0---0h2----
e|-------------3--------

Glavni Riff:
e|-------------------------------|
h|-------------------------------|
g|-------------------------------|
d|-------------------------------|
a|--------5----5h7-7-------5---4-|
e|-0--5h7---7-----(0)--5h7---7---|

e|----------------------------------------|
h|----------------------------------------|
g|----------------------------------------|
d|---------------------------5------------|
a|--------5----5h7-7-------5--------------|
e|-0--5h7---7-----(0)--5h7----------------|


Pesma:
Em       D A7
Jos vjerujem,
Em      D A7
Da postojis,
Em        D   A7    Em D A7
K'o sjena neuhvatljiva...


Refren 1:
G       D         A     Em
Ljubavi, daj mi ljubavi


Refren 2:
F#m    E    D             E
Mjesec lud, dal' te nocas dira,
F#m    E  C#m  D
Kraljice       nemira           (isto i ovde vazi...)
F#     E   D         E
Mjesec lud samo tebi svira
F#m    E    D
Pjesmu svemira


 |-7-| |-5-| |-5-|     (ovakvi zahvati)
 |-8-| |-7-| |-5-|
 |-9-| |-7-| |-6-|     prati ritam pesme
 |-9-| |-7-| |-5-|     moraces malo da ga improvizujes
 |-7-| |-5-| |-7-|
 |-x-| |-x-| |-5-|

(ako sviras sa distorzijom onda samo dvozvuke
a ako ne, onda sviraj pune akorde - lepse zvuci)


SOLO:
e-------------------------------------------------------
h-------------------------------------------------------
g-------------------------------------------------------
d-7/9-9-9--7-6-7--7/9-9-9--7-6-7--7/9--9-9--7-6-7--9\---
a-5/7-7-7--5-4-5--5/7-7-7--5-4-5--5/7--7-7--5-4-5--7\---
e-------------------------------------------------------

e----------------------------------------------------------
h---------------------------10-------15--------------------
g--14b--12~~-------------------9-----------14-----14p12----
d-----------9h12-12-12-9h12------/14----14-----14-------14-
a----------------------------------------------------------
e----------------------------------------------------------
                     ovaj deo je veoma brz
e------------------------12-----------------------------------------
h---------------------------12-16b--16p12-14p12---------------------
g----------12-12-----14b-----------------------14p12----12-14-14----
d-12h14-14-------14----------------------------------14----------14-
a-------------------------------------------------------------------
e-------------------------------------------------------------------