Divlje Jagode - London

Transkripcija: Partibrejkers

SOLO:

Prvi dio (veci dio svirajte prigusen, poslusajte pjesmu)
E|-9b11--------------------------------------------------------------
H|-------------------------------------------------------------------
G|--------9-10---9-10-12-10-9-10-10---9-10-12-10-9-10----------------
D|-------------------------------------------------------------------
A|-------------------------------------------------------------------
E|-------------------------------------------------------------------

E|-------------------------------------------------------------------
H|-------------------------------------------------------------------
G|-9-10-12-10-9-10-9-10-9-10-12-10-9-10-9-10-12-10-9-10-9-10---------
D|-------------------------------------------------------------------
A|-------------------------------------------------------------------
E|-------------------------------------------------------------------

E|-------------------------------------------------------------------
H|-------------------------------------------------------------------
G|-10-9-7-9-7-5-7-5-3-5-3-2-3-2-0------------------------------------
D|---------------------------------2/3-------------------------------
A|-------------------------------------------------------------------
E|-------------------------------------------------------------------

E|-------------------------------------------------------------------
H|-------------------------------------------------------------------
G|-----9-10-9--7-9-7-5-7-5-3--2-3-2-3-5-3-2-3--2-3-5-3-2-3-----------
D|-/7----------------------------------------------------------------
A|-------------------------------------------------------------------
E|-------------------------------------------------------------------

E|---------------------------------------------------------------9b11\-
H|---------------------------------------------------------------------
G|-2-3-5-3-2-3-2-3-2-3-0-----------------------------------------------
D|-----------------------2-3-2-3-2-3-2-3-2-3-2-3-5-3-2-3-5-3-----------
A|----------------------------------------------------------5-3-1------
E|---------------------------------------------------------------------


Drugi dio (sa tapingom)

     T    T    T    T    T    T    T    T    T
E|-------------------------------------------------------------------
H|-8-10-8-10-8-10-8-10-8-10-8-10-8-10-8-10-8-10----------------------
G|-------------------------------------------------2 puta-ovaj dio---
D|-------------------------------------------------------------------
A|-------------------------------------------------------------------
E|-------------------------------------------------------------------

     T    T    T    T    T    T    T    T    T
E|-------------------------------------------------------------------
H|---10-6-10-6-10-6-10-6-10-6-10-6-10-6-10-6-10----------------------
G|-------------------------------------------------------------------
D|-------------------------------------------------------------------
A|-------------------------------------------------------------------
E|-------------------------------------------------------------------

     T    T    T    T    T    T    T    T    T
E|-------------------------------------------------------------------
H|---10-5-10-5-10-5-10-5-10-5-10-5-10-5-10-5-10----------------------
G|-------------------------------------------------------------------
D|-------------------------------------------------------------------
A|-------------------------------------------------------------------
E|-------------------------------------------------------------------


     T    T    T    T    T    T    T    T    T
E|-------------------------------------------------------------------
H|--10-6-10-6-10-6-10-6-10-6-10-6-10-6-10-6-10----------------------
G|-------------------------------------------------2 puta-ovaj dio---
D|-------------------------------------------------------------------
A|-------------------------------------------------------------------
E|-------------------------------------------------------------------

     T    T    T    T    T    T    T    T    T
E|-------------------------------------------------------------------
H|---10-5-10-5-10-5-10-5-10-5-10-5-10-5-10-5-10----------------------
G|-------------------------------------------------------------------
D|-------------------------------------------------------------------
A|-------------------------------------------------------------------
E|-------------------------------------------------------------------

     T    T    T    T    T    T    T    T    T
E|-------------------------------------------------------------------
H|---10-3-10-3-10-3-10-3-10-3-10-3-10-3-10-3-10----------------------
G|-------------------------------------------------------------------
D|-------------------------------------------------------------------
A|-------------------------------------------------------------------
E|-------------------------------------------------------------------

Sve ovo skupa 2 puta

treci dio

E|-------------------------------------------------------------------
H|-------------------------------------------------------------------
G|----------10-9-10----------12-10-9-----------9-7-9---------10-9-7--
D|-7-7-7-7-----------8-8-8------------5-5-5-5---------5-5-5----------
A|pm......----------pm....-----------pm......--------pm....----------
E|-------------------------------------------------------------------

E|---------------------------------5---------------------------------
H|-------------------------6-5-3--------------------------------------
G|--------------7----------------------------------------------------
D|-3-3-3-3-3-3-------3-3-3-------------------------------------------
A|pm..........------pm....-------------------------------------------
E|----------------------------------------------\--------------------