Divlje Jagode - Maida

Transkripcija: Luka B.
Album        : Magic Love, 1992


* Stim je standardan a prvi akord pratnje je Fmol.

 Distorted:
E----------------------------------------
H----------------------------------------
G---15B---15RP~~~~~13--------------------
D------------------------15~~~~~~~-------
A----------------------------------------
E----------------------------------------

E----------------------------------------
H----------------------------------------
G--------12--13---12~~~~~~~~~~-----------
D---15-----------------------------------
A----------------------------------------
E----------------------------------------

E----------------------------------------
H----------------------------------------
G---15B---15RP~~~~~13--------------------
D------------------------15~~~~~~~-------
A----------------------------------------
E----------------------------------------

E----------------------------------------
H----------------------------------------
G--------------12--13--12----10h12p10--9~
D--15~~~~~~~-----------------------------
A----------------------------------------
E----------------------------------------

E-19b-19rp-17~~14-------14-16-17--16~~~--
H----------------------------------------
G----------------------------------------
D----------------------------------------
A----------------------------------------
E----------------------------------------

E-19b-19rp-17h19/22~~~21-14-16-17-16h17p16
H---------------------------------------
G----------------------------------------
D----------------------------------------
A----------------------------------------
E----------------------------------------

E---14h16p14/13------16b-16rp-14~~~~~~~~~
H----------------------------------------
G----------------------------------------
D----------------------------------------
A----------------------------------------
E----------------------------------------

E-19h21~~~~~~~~~~~---19-21-22-21~~~~~~~~~
H----------------------------------------
G----------------------------------------
D----------------------------------------
A----------------------------------------
E----------------------------------------

E--14-17-19-16h17p16--14-14~~~~~~~~~~~~--
H----------------------------------------
G----------------------------------------
D----------------------------------------
A----------------------------------------
E----------------------------------------

E-19h21~~~~~~~~~~~---19-21-22-21~~~~~~~~~
H----------------------------------------
G----------------------------------------
D----------------------------------------
A----------------------------------------
E----------------------------------------

E-19h21p19/17----21-19-17-16-17-16--14--14
H----------------------------------------
G----------------------------------------
D----------------------------------------
A----------------------------------------
E----------------------------------------

ACUSTIC PART:
E-----------------------------------------
H----------------------------------------
G----15b-13-15----------15b-13-15--------
D---------------15-----------------15----
A----------------------------------------
E----------------------------------------

E----------------------------------------
H----------------------------------------
G-15pb-13-15-------12-13-15--------------
D-------------15-------------13----------
A----------------------------------------
E----------------------------------------

E----------------------------------------
H----------------------------------------
G----15b-13-15----------15pb-13-15-------
D---------------15-----------------15----
A----------------------------------------
E----------------------------------------

E----------------------------------------
H----------------------------------------
G------12-13-12h13p12-10/12----10h12p10-9
D---15-----------------------------------
A----------------------------------------
E----------------------------------------

E--6/8-4h6p4/3/4----------6-8-8p6--------------
H-----------------6-6-8-9-----------9-8-9-8----
G----------------------------------------------
D----------------------------------------------
A----------------------------------------------
E----------------------------------------------

E--------------------------------------------
H-6-6-8-9---6/8--6h8p6/4/6-------------------
G-----------------------------3pb------------
D--------------------------------------------
A--------------------------------------------
E--------------------------------------------

E---------6-8-9-8p6-----------------------------
H---6-8-9-----------9-9--8-9-9-11--8-8h9p8---6--
G-----------------------------------------------
D-----------------------------------------------
A-----------------------------------------------
E-----------------------------------------------

* Nakon ovoga ponovo distorzija i glavna melodija
* koju ponavljate do kraja
* pa onda outro koji slijedi:

E-------------------------------------
H-------------------------------------
G-13h15p12-i tako dalje---------------
D-------------------------------------
A-------------------------------------
E-------------------------------------

Pb-pre bend
Rp-repick
~~~~~~~~-vibrato