Divlje Jagode - Marija

Album        : Od neba do neba
Transkripcija: Macak
Poslao       : Mirko - melody_blue@net.hr
Info         : Gitara nastimana za polustepen navise, Am=A#m itd...


Akordi:
-------------------
    Am
    Fmaj7  - 033210
    A7sus4 - 002030
    G
    C      - 332010
    Dm
-------------------

Am
Ti i ja smo sunca dva
ti i ja ko andjeli

Fmaj7                 Am
spojili se nebom letjeli

Do duge mi smo zeljeli
do duge mi smo plovili

Fmaj7                    Am A7sus4
na krilima od sjena mjeseca

Am
Nisam bio mnogo jak

G            Fmaj7        Am A7sus4
da odolim na tvoj tajni znak

Am
zemlju si ocarala

G           Fmaj7     Am A7sus4 Am
zauvijek si mene uzela

            C       G
Ref: Trebam te Marija
        Dm        Am
     od neba do neba
            C       G
     Povedi me Marija
     Dm        Am    (A7sus4 Am)
     moja Marija      Marija

Solo: Am Fmaj7 G Am (A7sus4)

Vjeruj mi Marija, od neba do neba
moja si meni sudena

Zajedno smo plovili, morem plavim nebeskim
zajedno u vjecnom nestali

Nisam bio ...



***VERZIJA 2***
Transkripcija: bato (armin_besirovic@yahoo.co.uk)
Stim         : polustepen vise, originalan tonalitet A#m (Am=A#m ...)


Evo koristeni akordi:
    Am  Fmaj(7) G
F#|-0---0-------3---|
C#|-1---1-------0---|
A |-2---2-------0---|
E |-2---3-------0---|
H |-0-----------2---|
F#|-------------3---|

Eh sad idete ovako:

Am
Ti i ja smo sunca dva 
Ti i ja ko andjeli 
Fmaj                   Am  (prelaz Fmaj-G)
spojili se nebom letjeli
Am
do duge mi smo zeljeli
do duge mi smo plovili
Fmaj                     Am (prelaz kao i gore)
na krilima od sjena mjeseca
Am
Nisam bio mnogo jak
G         Fmaj              Am (prelaz -II-)
da odolim na tvoj tajni znak
Am
zemlju si ocarala 
G           Fmaj      Am
zauvijek si mene uzela
 
(sad se idu samo riffovi, mozete dodati 4. prst da budu power
 akordi ali isti je efekat...)

            C5      G5
Ref: Trebam te Marija
        D5        A5 
     od neba do neba
            C5      G5
     Povedi me Marija 
       D5
     moja Marija.

Solo je jednostavan moze ga svako odsvirat, evo ga:
SOLO (2x):
                                                           zadnji put
eb|-------------------------------------------------------|-----|
Hb|-8^wr--5--6-----------------8^wr--5--6-----------------|-----|
Gb|-------------5--4--5--7--5--------------5--4--5--4-----|-----|
Db|----------------------------------------------------7--|-/12-|
Ab|-------------------------------------------------------|-----|
Eb|-------------------------------------------------------|-----|

14:01 27.1.2004
bato (Tehnicki Problem)
armin_besirovic@yahoo.co.uk

***VERZIJA 3***
Transkripcija: Emir Maslo

Intro:Am

Am
Ti i ja smo sunca dva 
Ti i ja ko andjeli 
G                     Am
spojili se nebom letjeli
Am
do duge mi smo zeljeli
do duge mi smo plovili
G                        Am Dsus2
na krilima od sjena mjeseca
Am
Nisam bio mnogo jak
G         F              Am Dsus2
da odolim na tvoj tajni znak
Am
zemlju si ocarala 
G           F        Am
zauvijek si mene uzela
 
            C       G
Ref: Trebam te Marija
        Dm        Am 
     od neba do neba
            C       G
     Povedi me Marija 
       Dm      Am
     moja Marija.


Solo
|---------------------------------------------------------------|
|--8s10-8-------------------------8s10-8------------------------|
|---------9-9v----------7----------------9-9v-------------------|
|---------------10-9-10---10------------------10-9-10-9-7-------|2x
|---------------------------------------------------------------|
|---------------------------------------------------------------|

Dsus2
e|-0-|
H|-3-|
G|-2-|
D|-2-|
A|---|
E|---|
________
KOMENTAR: kukac
          tonalitet nije dobar,akordi idu:
          strofa: Hm,A,Hm,Hm,A,Hm ; 
          prelaz: D,A,G,Hm,D,A,G,Hm ;
          ref   : Hm,D,A,Em,Hm,D,A,Em,Hm
________
KOMENTAR: ico
          momci pjesma je iz Bm 
          Ki: Bm-Fis x2    Bm-Gis-Fis x2
          Rf: Cis-Gis-Dism-Bm    Cis-Fis-Dism-Bm 
________
KOMENTAR: Peja (dalibor@zivinicebih.com)
          Mislim da oni sviraju F umjesto G iako meni lijepo
          zvuci i G kad se svira umjesto F na pocetku pjesme
          a isto tako mozda jos i bolje F pa G, ali sve zavisi
          od toga kako se otpjeva.
          Najbolje zvuci ako se svira iz Am (ne barehvat) a da 
          je gitara nastimana za pola tona vise.



***VERZIJA 4***
Transkripcija: iks 

Intro:Bm
 
Bm
Ti i ja smo sunca dva 
Ti i ja ko andjeli 
G#                     Bm
spojili se nebom letjeli
Bm
do duge mi smo zeljeli
do duge mi smo plovili
G#                        Bm D#       
na krilima od sjena mjeseca
Bm
Nisam bio mnogo jak
G#         F#              Bm D#
da odolim na tvoj tajni znak
Bm
zemlju si ocarala 
G#           F#        Bm
zauvijek si mene uzela
 
            C#       G#
Ref: Trebam te Marija
        D#m        Bm 
     od neba do neba
            C#       G#
     Povedi me Marija 
       D#m      Bm
     moja Marija.


***VERZIJA 5***
Transkripcija: Carobnjak

SOLO:
|----------------------------|-----------------------------|
|8hb10-----------------------|-8hb10-----------------------|
|------b9-9h10----------7----|------b9-9h10----------------|
|--------------10--9h10---10-|--------------10--9h10r9--7--|
|----------------------------|-----------------------------|
|----------------------------|-----------------------------|
                                 r-pusti hammer