Divlje Jagode - Metalni Radnici

Transkripcija: Stojan Babic 


Uvod & Strofa (prvi dio)
|--------------------------------------
|--------------------------------------
|--------------------------------------
|----------4------x-x-8--x-x-8--x-x-8--
|------4-----4--6-x-x-6--x-x-6--x-x-6--
|--4/6---6-----------------------------

Strofa (drugi dio)                       budni sanjaju....

   C#       F#       C#       F#        F#  C#  D#
|--------------------------------------------------
|--6--------7--------6--------7---------7---6---8--
|--6--------6--------6--------6---------6---6---8--
|--6--------4--------6--------4---6/8---4---6---8--
|--4--------4--------4--------4---4/6---4---4---6--
|--------------------------------------------------

Refren
G#  Fill     F#C# D# 
Metalniiiii  radnici 

 Fill     
|-----------------
|-----------------ovo ide izmedju G# i F# u refrenu
|----------4------
|-----4------4-6--
|-4/6---6---------
|-----------------

Prelaz
|------------------|---|-------------|---|----------------------|
|------------------|---|-------------|---|----------------------|
|------------------|x4-|-------------|x3-|----------------------|
|-4-----6-----6/8--|---|-------------|---|---------6/8--6/8--8\-|
|-2--6--4--6--4/6--|---|-6/8-x-x-8\6-|---|-4-5-6-7-4/6--4/6--6\-|
|----4-----4-------|---|-4/6-x-x-6\4-|---|-2-3-4-5--------------|

Solo (od 03:36)

Napomena: zele u ovom solu skoro svaki ton bar malo nategne prave
          bendove sam naznacio sa b sami ih natezite po potrebi  
          nisam skini do kraja jer dalje bi mogo da skinem 
          samo svaki drugi ton ebiga zele je zele  

|-------------------------------------------------------------------
|------------------------------------------------------------8h9p8--
|---------x-x-8p6---------------------------6-8---10b--6h8----------
|-x-x-6-------------x-x-6h8--x--x-x-----6---------------------------
|----------------------------x--x-x-6/8---8-------------------------
|-------------------------------------------------------------------

 ---------------------------------
 -13brb---------------------------
 --------12pbr-10----6------------
 -----------------------6/11------
 ---------------------------------
 ---------------------------------