Divlje Jagode - Moj Dilbere

Transkripcija: Damir Fific (dd3@iname.com)
Home         : http://2akordi.net


album : ?
transkribcija : Damir Fific, The Netherlands, dd3@iname.com
ili budala@angelfire.com
Za sve primjedbe, ideje, zelje itd... pisite na jednu od te
 dvije adrese.
info: legendarna rock verzija ove jos legendarnije pjesme.
Sve je u A-molu (A,B,C,D,E,F,G) osim sola za koji je koristena
A Phrygian Dominant skala,(A,A#,C#,D,E,F,G), koja je u stvari
peti modus od harmonicne mol skale.
Najvise se koristi u spanskoj muzici (flamenko, itd...)
zbog karakteristicnog zvuka,ali dobro zvuci i u rock muzici.
Yngwie Malmsteen i Joe Satriani je cesto upotrebljavaju.
(Malmsteen - Rising Force solo)



figure 1 : intro riff
   A5           G5
E|-------------------------------------------|
B|-------------------------------------------|
D|-------------------------------------------|
G|-------------------------------------------|
A|-7--x-x-7-7---5--7-----7-x-x--7-7--7-7--5--|
E|-5--x-x-5-5---3--5-----5-x-x--5-5--5-5--3--|


figure 2: keyboard intro

E|-----------------------------------------
B|-----------------------------------------
D|---------14----14-12-10-9----10--9^10^9--
G|---12-14------------------12-------------
A|12---------------------------------------
E|-----------------------------------------


fugure 1
Moj Dilbere,
D      C   G
kud se seces
figure 1
Aj sto i mene
G   A  ( bass A#, C, A#)
ne povedes.

Povedi me
u carsiju
Aj pa me prodaj
pazardziji.

Uzmi za me
oku zlata
pa pozlati
dvoru vrata.


figure 3: solo
prva dva puta  "muted"
--------------------------------------------------------------------
-5--6-5-----------------------------5--6-5--------------------------
--------7--7-7-6--------6-----6-7----------7--7-7-6--------6--------
------------------8-7-8----8-------------------------8-7-8---8-7-5-7
--------------------------------------------------------------------
--------------------------------------------------------------------

figure 4: outro
---------------------------------------------|
---------------------------------------------|
---^-------------7--5------^------------5--4-| X2
-5-/-7--7-7-7-7----------5-/-7--7-7-7-7------|
---------------------------------------------|
-3-/-5--5-5-5-5----------3-/-5--5-5-5-5------|

/ = slide
x = priguseno desnom rukom.Lijeva ruka je jos uvijek
na zicama u ovom slucaju iznad petog polja


***VERZIJA 2***
Transkripcija: Igor Medarevic - mmarko@blic.net
Home         : www.2akordi.net

Riff
E--------------------------------------
H--------------------------------------
G--------------------------------------
D--------------------------------------
A--7--7-7--7---------7--7-7--7--7-7-5--
E--5--5-5--5--3-4-5--5--5-5--5--5-5-3--

Solo

Solo muted
E-------------------------------------------------------------------
H--5--6-5---------------------------5--6-5--------------------------
G--------7--6-7-6----------------6--------7--6-7-6-------7-6-------- 2x
D------------------8-7-7-7-8--7-8-------------------8-7-8---8--5-7--
A-------------------------------------------------------------------
E-------------------------------------------------------------------

Solo 2
E----------------------------------------------------
H--5--6-5h6p5----------------------------------------
G------------7--6-7-6b----------------6h7p6p7p6p7p6--
D-----------------------8-7-7-7-8--7-8---------------
A----------------------------------------------------
E----------------------------------------------------

E--------------------------------------------------
H--5--6-5h6p5--------------------------------------
G------------7--6-7-6h7p6p7p6p7p6-------7-6--------
D----------------------------------8-7-8---8--5-7--
A--------------------------------------------------
E--------------------------------------------------

E----------------------------------------------------
H--5--6-5h6p5----------------------------------------
G------------7--6-7-6b----------------6h7p6p7p6p7p6--
D-----------------------8-7-7-7-8--7-8---------------
A----------------------------------------------------
E----------------------------------------------------

E-------------------------------------------------------
H--5--6-5h6p5-------------------------------------------
G------------7--6-7-6h7p6p7p6p7p6-------7-6-------------
D----------------------------------8-7-8---8--5-5-6--7--
A-------------------------------------------------------
E-------------------------------------------------------

Kraj
E--------------------------------------
H--------------------------------------
G-------------5/7-5-------------3/5-4-- 3x
D--5-7-5-7-7---------5-7-5-7-7---------
A--5-7-5-7-7---------5-7-5-7-7---------
E--3-5-3-5-5---------3-5-3-5-5---------

E--------------------
H--------------------
G-------------5/7-5--
D--5-7-5-7-7---------
A--5-7-5-7-7---------
E--3-5-3-5-5---------

-------------------------------------------------------
-------------------------------------------------------
--------------------------------------0-1-2b-----------
-----------------------------------0-2-----------------
--0h1p0-0h1h0-0h1p0-0h1p0-0h1p0-0-3-------------5-7-\--
-------3-----3-----3-----3-----3----------------3-5-\--

* Ovo je stvarno mnogo lagano a mnogo lijepo.
* Pozdrav od Igora