Divlje Jagode - Mojoj Ljubavi

Transkripcija: Igor Medarevic - mmarko@blic.net
Home         : www.2akordi.net


Solo
E----13b---13b-\12-10-----------------------------------
H--10----------------10-----10-11---10h11-10h11p10------
G-------------------------10----------------------10----
D---------------------------------------------------10--
A-------------------------------------------------------
E-------------------------------------------------------

E-----------------------------------------------------------------
H----10-11-13-10h11p10--------------------------10-11-10h11p10----
G--10-----------------10-10h12--10b\8---------10--------------10--
D------------------------------------10-9-10----------------------
A-----------------------------------------------------------------
E-----------------------------------------------------------------

E------------------------------------------------
H------------------------------------------------
G--9h10p9--------9-10-12-10p9-------------9b-10--
D--------10----10------------10-10/12--12--------
A----------10------------------------------------
E------------------------------------------------

E-------------------------------------------------
H--10/11--13--11--10---10-8--8--10--8--6--6-8-10--
G--11/12--14--12--10---10-9--9--10--9--7--7-9-10--
D-------------------------------------------------
A-------------------------------------------------
E-------------------------------------------------

E--------------------------------------
H--11--13--11--10---10-8--8--10--8--6--
G--12--14--12--10---10-9--9--10--9--7--
D--------------------------------------
A--------------------------------------
E--------------------------------------

* To je to. Mislim da je ovo starija verzija ove
* stvari, zao mi je nemam noviju. Ako neko ima ,tu sam.
* Pozdrav od Igora


***VERZIJA 2***
Transkripcija: Sezam (cometbih@yahoo.com)
               Nocni_Plivac - igorovic@gmx.de


Gm     Cm            Gm
U moj svjet si dosla ti
       Cm         Gm(B)
tiha kao suton blag
        G#         Gm
moje misli i moj trag
F        Dm    F    Gm
nasao je lik tvoj drag.

Ispred nas dug je put
nad njim bdije strepnja strah
trazim njezni pogled tvoj
         F/Dm        Gm
dok te ljubim gubim dah.

ref:
Gm      D#       F    Gm
Sav nas put moja ljubavi
Gm    D#      F      Gm
prati strah i sumnje dah
Gm   D#          F   Gm
moje misli nekud lutaju
Gm   D#   F      Gm
kuda vodi njihov trag.


***VERZIJA 3***
Transkripcija: Mario Mirenic


      Dm              Am
U moj svijet si dosla ti,
     Dm        Am
tiha kao suton blag,
     A#          F
moje misli i moj trag,
      Gm (Dm)    C
nasao je lik tvoj drag.

       Dm         Am
Ispred nas dug je put,
         Dm             Am
nad njim bdije strepnja strah,
       A#            F
trazim njezni pogled tvoj,
       C            Dm
dok te ljubim gubim dah.

        A#       C , Dm
Sav nas put moja ljubavi,
       A#       C     Dm
prati strast i sumnje dah,
       A#         C , Dm
tvoje misli nekud lutaju,
      C   F , C  Dm
kuda vodi njihov trag.

Solo:
Dm,Am,A#,F
Gm,Dm,C,Gm,Dm,C,...


***VERZIJA 4***
Transkripcija: Partibrejkers

SOLO:
E--------13--pb13r12--------------------------------------
H--8/10---------------10\/--10h11--10h11h13p11p10h11------
G---------------------------------------------------------
D---------------------------------------------------------
A---------------------------------------------------------
E---------------------------------------------------------

E----------------------------------------------------------------
H-10h11p10\8--8h10p8\6--6/8--8h10-10---10h11--11-10-8------------
G-----------------------------------------------------7----------
D-------------------------------------------------------10-\-5---
A----------------------------------------------------------------
E----------------------------------------------------------------

E-------------------8-------------------------------
H-------------8/10-----10-8---6-8-8b10-6------------
G------10-12-----------------------------7----------
D--/12----------------------------------------------
A---------------------------------------------------
E---------------------------------------------------

E-------------------------3/5------------------------
H--pb10r8--6h8--3h5--3p1-------3---------------------
G----------------------------------------------------
D----------------------------------------------------
A----------------------------------------------------
E----------------------------------------------------

E--15b17r15---13--15--\---15b17r15--13-15------------
H-----------------------------------------15---------
G----------------------------------------------------
D----------------------------------------------------
A----------------------------------------------------
E----------------------------------------------------

E-12h13h15p13p12h13--12h13p12\8--------------13------
H-------------------------------8\/\/\/---/--10------
G----------------------------------------------------
D----------------------------------------------------
A----------------------------------------------------
E----------------------------------------------------

E-------------------------------13-12------------------------
H-13b15r---10--13b15----15-----------15-13-11-10-------------
G--------------------------13-14-----------------12-10-------
D------------------------------------------------------12----
A------------------------------------------------------------
E------------------------------------------------------------

E----------------------------------------------------------------
H------------------------------------13--------------------------
G-10h12b13r12b13r12b13r12--10--12/14----14-12--14-12-10--12-10-7-
D----------------------------------------------------------------
A----------------------------------------------------------------
E----------------------------------------------------------------

E-------------------------------------------------------
H-8--10/13-------10/13----------13-------------13-------
G----------12-10-------12-10-12----10-12-10-12----10-12-
D-------------------------------------------------------
A-------------------------------------------------------
E-------------------------------------------------------

E----------------------------------------------------
H----------------------------------------------------
G-10-12--12b--10-------------------------------------
D-----------------12---------------------------------
A----------------------------------------------------
E----------------------------------------------------