Divlje Jagode - Motori

Transkripcija: Igor Medarevic - mmarko@blic.net
Home         : www.2akordi.net


Solo
E------------------------------------------------
H------------------------------------------------
G------------------------------------------------
D--x-x-x-x-9-9-9-9-9-9-9-9-9-9-9\8-6/7-7----5----
A---------------------------------------------7--
E-----------------------------------------5------

E------------------------------------10b------------------------
H--8b-------------------------8-----------10-12--10-\-----------
G----------9---------------7----9-\------------12---------------
D------7-9---7-9-5-7---7/9---9-------------------------7b~-\----
A------------------------------------------------------7b~-\-2--
E------------------------------------------------------------0--

E----------------------12h15p12-15p12-15p12--
H--12h15p12-15p12-15p12----------------------
G--------------------------------------------
D--------------------------------------------
A--------------------------------------------
E--------------------------------------------

E----------------------12h15p12-15p12-15p12--
H--12h15p12-15p12-15p12----------------------
G--------------------------------------------
D--------------------------------------------
A--------------------------------------------
E--------------------------------------------

E----------------------12h15p12-15p12-15p12-------
H--12h15p12-15p12-15p12--------------------12b-\--
G-------------------------------------------------
D-------------------------------------------------
A-------------------------------------------------
E-------------------------------------------------

E-----------------------------12-15-14-12h13p12-\--
H------------------12-10-13-12---------------------
G-------12-11-14-12--------------------------------
D--12/14-------------------------------------------
A--------------------------------------------------
E--------------------------------------------------

* Solo je stvarno lagan,a jako efektan.
* Pozdrav gitaristima


***VERZIJA 2***
Transkripcija: ???


/ uvod / - Em

Em         G          D     DCH    Em
Aaaaa------Aaaaa------Vahaaa

Em                D         Em
U daljini cuju se kao gromovi
Em                D          Em
Autoputem prolaze kao vjetrovi
G    D     Em        G     D    Em
Odlaze na dalek put, ko to moze znati
G    D    Em           G      D      Em
Samo neki stoper ljut, sto ih prstom prati.

REFREN:
Fism            A E Fism
Motori, motori, motori          /3X
Fism            A E D
Motori, motori, motori          /1X

Em - D - GDG  /2X

Em                  D            Em
Izlizane traperice, jakne, cizmice
Em              D           Em
Usijane kacige, kozne torbice
G    D    Em         G     D    Em
Odlaze na dalek put, ko to moze znati
G    D    Em           G      D      Em
Samo neki stoper ljut, sto ih prstom prati.

REFREN:
SOLO: Em - D  /4X

G    D    Em         G     D    Em
Odlaze na dalek put, ko to moze znati
G    D    Em           G      D      Em
Samo neki stoper ljut, sto ih prstom prati.

REFREN: /2X

/ uvod /



***VERZIJA 3***
Transkripcija: Milan Sencanski - vladas@yubc.net
               Adi - adiazrael@hotmail.com


SOLO: (by Milan)
------------------------------------------------------------------------------
------------------------------------------------------------------------------
------------------------------------------------------------12r9-----9--------
--9x9x9x9x9x9x9x9x8x8x8x8x88x7x7x7x7x7x-7vvv---------------------7h9----7h9---
------------------------------------------------------7\----------------------
----------------------------------------------3--0----------------------------

------------------------------------------------------------------------------
---------------8-------15r12v-12-15-------------------------------------------
-------------7---9\-----------------12-14-----------------9\------------------
-5-7vvvvv-/9-------------------------------0b\------------9\------------------
------------------------------------------------------------------------------
------------------------------------------------------------------------------
                                         (trem. bend down)

-----------------12t15p12t15p12-----------------12t15p12t15p12----------------
-t15p12t15p12t15----------------t15p12t15p12t15-------------------------------
------------------------------------------------------------------------------
------------------------------------------------------------------------------
------------------------------------------------------------------------------
------------------------------------------------------------------------------

-----------------t15p12t15p12t15p12-------------------------------------------
-t15p12t15p12t15--------------------15\---------------------------------------
------------------------------------------------------------------------------
------------------------------------------------------------------------------
------------------------------------------------------------------------------
------------------------------------------------------------------------------

(by Adi)
E-----------------------------|---------8--7------------|
B-----------------------------|-----10--------10~-------|
G------------7------9--7--10--|--9----------------------|
D--7--10--9-----10------------|-------------------------|
A-----------------------------|-------------------------|
E-----------------------------|-------------------------|


***VERZIJA 4***
Transkripcija: Adrijan J. (djole_12@yahoo.com)
Home         : http://2akordi.net



introdukcija:   Em          G              D      Em
                Aaaaa------Aaaaa------Vahaaa

Em            D Em   E--0--; D--2---; E--0--; D--2---;
U daljini cuju se kao gromovi
Em            D Em   E--0--; D--2---; E--0--; D--2---;
Autoputem prolaze kao vjetrovi
G     D      Em          G      D        Em
Odlaze na dalek put, ko to moze znati
G       D      Em           G      D         C
Samo neki stoper ljut, sto ih prstom prati.

Refren:
Fm                     A E  Fm  g---2-2--; D---4---;
Motori, motori, motori ...      3x
Fm                     A E  D
Motori, motori, motori ...      1x

Instrumentala: Em; D;   G D G   2x

Em             D Em   E--0--; D--2---; E--0--; D--2---;
Izlizane traperice, jakne, cizmice
Em             D Em   E--0--; D--2---; E--0--; D--2---;
Usijane kacige, kozne torbice
G     D      Em          G      D        Em
Odlaze na dalek put, ko to moze znati
G       D      Em           G      D         C
Samo neki stoper ljut, sto ih prstom prati.

Refren:
Fm                     A E  Fm  g---2-2--; D---4---;
Motori, motori, motori ...      3x
Fm                     A E  D
Motori, motori, motori ...      1x

Instrumentala:  Em; D  E-0-; D-2-; E--0--; D--2---; 4x

G     D      Em          G      D        Em
Odlaze na dalek put, ko to moze znati
G       D      Em           G      D         C
Samo neki stoper ljut, sto ih prstom prati.

Refren:
Fm                     A E  Fm  g---2-2--; D---4---;
Motori, motori, motori ...      3x
Fm                     A E  D
Motori, motori, motori ...      1x