Divlje Jagode - Ne Zelis Kraj

Transkripcija: izi


3/4 ritam

Intro:
    .        .        .        .        .        .        .        .
E---3-3------------------------2-----------------------------------3-------|
H---3-(3)------------------(3)-3-------------------------------------3-----|
G---0--(0)---------------(2)---2(2)------------------------------------0---|
D---0-------------0h2--0-------0-----------------0h2-0---------------------|
A---2-------h2--------------------------0h2-3----------2p0-----------------|
E---3--------3---------------------------------------------3---------------|
    .       .         .       .        .        .        .        .
E-----------------------------2--------------------------------------------|
H-------------------------(3)-3--------------------------------------------|
G-----------------------(2)---2(2)-----------------------------------------|
D----------------0h2--0-------0-----------------0h2-0----------------------|
A----------h2--------------------------0h2-3----------0h2------------------|
E---3-------3---------------------------------------------3----------------|

STROFA:

n.c.        G  Gsus4 G
   Ne zelis kraj
           D
   mada je tu
        Am              Em  D        G  C G
   medju nama stvara se jaz i bljedi sjaj


Ne zelis kraj
tesko je znam  ou jeea
    Am           Em     D       G   bas prijelaz G-A-H
al' idi nedaj se ne daj ostacu sam


REFREN:
C      D           G   Gsus4  G + bas pr. G-A-H
  Bili smo luckast par
C      D          G    Gsus4  G + bas pr. G-A-H
  mada vec prosla stvar
C      D         G   D  Em
  sada jos molim te_______________
Em  Am  Am7  D         G  C G
  odbacimo   _gluposti sve

-------------------------------------------------------------
Gsus4 - 320013
        EADGBe

* G-A-H prijelaz - A------0---2----
                   E--3------------



***VERZIJA 2***
Transkripcija: Edin

Intro:
E|-3---3--------------------------------2----------------------------|
H|-3-------------------------------------3---------------------------|
G|-0-------------------------------------2---------------------------|
D|-0--------------------0-h-2-p-0---------------------0h2p0----------|
A|-2---------------2---------------------------0-2-3---------------2-|
E|-3-----------3-----------------------------------------------------|

E|----------------------------------2--------------------------------|
H|-----------------------------------3-------------------------------|
G|-----------------------------------2-------------------------------|
D|---------------0h2p0--------------------0h2p0----------------------|
A|-------------2----------------------0-2-3---------------2----------|
E|-------3---3----------------------------------------------------3--|


         G
Ne zelis kraj
        D
mada je tu
     Am             C            G
medu nama stvara se jaz i bljedi sjaj

Ne zelis kraj
tesko je znam
al' idi nedaj se ne daj ostacu sam

REFREN:
C       D           G
   Bili smo luckast par aaah
C       D          G
   mada vec prosla stvar aaah
C       D         G  Em
   sada jos volim te eeh
     C       D         G
   odbacimo   gluposti sve

1.strofa

Solo:
E|------------------------------------------------------------------|
H|-8h11b12-----10--8-------8h11b12------10p8h10----10p8p7---9h10--7-|
G|------------------------------------------------------------------|
D|------------------------------------------------------------------|
A|------------------------------------------------------------------|
E|------------------------------------------------------------------|

E|-----------------------------------|
H|-----10~~~-----12~~~---------------|
G|-----------------------11---11--10-|
D|-----------------------------------|
A|-----------------------------------|
E|-----------------------------------|


Bili smo luckast par ...

OUTRO:
E|-3---------------------------2-------------------------------------3-|
H|-3---------------------------3---------------------------------------|
G|-0---------------------------2---------------------------------------|
D|-0--------------0h2p0-----------------------0h2p0--------------------|
A|-2--------2------------------------0-2-3----------------2------------|
E|-3----3-------------------------------------------------------3------|

E|--------------------------2------------------------------|
HII3-------------------------3-----------------------------|
G|---------------------------2-----------------------------|
D|---------0h2p0-----------------0h2p0---------------------|
A|-------2-------------------0-2-3-------------2-----------|
E|------3------------------------------------------------3-|


***VERZIJA 3***
          G(sus4)       D
Ne zelis kraj, mada je tu
      Am             Em  D         G(sus4)
Medju nama stvara se jaz i blijedi sjaj
         g(sus4)        D
Ne zelis kraj, tesko je znam
    Am              Em      D      G(sus4)
Ali idi, ne daj se, ne daj, ostacu sam


C    D           G    D   C
Bili smo luckast par
C    D           G    D   C
Mada vec prosla stvar
C    D         G   D   Em
Sada jos molim te
  Am    D         G  C  G
Odbacimo gluposti sve

***VERZIJA 4***
Transkripcija: ???

SOLO:
E--^------^-------^-----^-------------------------------------------------
H--10-12-10-8-----10-12-10-810----7--------------------------^------------
G------------------------------------9-7----45-4---2~-0------9--7-^-------
D------------------------------------------------------------------7--5---
A-------------------------------------------------------------------------
E-------------------------------------------------------------------------

  ^ podizanje zice
  / slide
  ~ vibrato

***VERZIJA 5***
Transkripcija: NEred_source

SOLO:
|---------10--------------------10-------------
|--10b12------pb10r--8~--10b12-----pb10r-8-10--
|----------------------------------------------
|----------------------------------------------
|----------------------------------------------
|----------------------------------------------

|----------------------------------------------
|--7/5-----------------------------------------
|-------7--4/5--4--------------7/9-7-----------
|------------------7brbrbr--5--------9/7-5-----
|----------------------------------------------
|----------------------------------------------