Divlje Jagode - Pisi Mi

Transkripcija: alko rocker

Intro :

prva gitara :
E-----------------------------------------------------------
H-----------------------------------------------------------
G-----------------------------------------------------------
D------8---7---7-/-8---------7---5---5-/-7------------------
A--5-5---5---5-----------3-3---3---3------------------------
E-----------------------------------------------------------

Druga gitara :
E-------------------------------------------
H-------------------------------------------
G-----7-7--10--7--10--7---------------------
D-----7-7--10--7--10--7---------------------
A-------------------------------------------
E-------------------------------------------

Dm          C      Dm      B   C
Da li iz Londona , ili Kalifornije ,
Dm        C      G            A
Beca ili Bona , da se javis , da mi je...
Dm        C       Dm      B  C
da li je Kanada , ili Australija ,
Dm               C     G              A
sve dok postoji nada , znas da voljet cu te ja....

           Dm G     C
Ref:  Pisi mi , pisi mi ,
           B    C  Dm    G
      pisi kao ranije ,
     G       C           B           A
      oprosti mi , nisam znao sta mi je ...

prelaz :
E-------------------------
H-------------------------
G-------------------------
D--7-8-7-5----------------
A----------8-7------------
E-------------------------

Da li iz Berlina , ili Skandinavije ,
bilo kojeg djela , bivse Jugoslavije ,
F  C       Dm    F     C      Dm
Koja je zemlja , koji pusti grad ,
F    C      Dm     B      A
sada tebe skriva , ko zna gdje si sad....

Ref: Pisi mi....

dionica pred solo : G A

Solo :

ovo su riffovi koji su koristeni u pratnji solaze,
poslusajte pjesmu i znat cete u kojem ritmu ih osvirati ... :

E--------------------------------------------
H--------------------------------------------
G--------------------2-----------------------
D--7--7--5--5--3--3--2----7--9--10--12--14---
A--5--4--3--2--1--0--0----5--7--8---10--12---
E--------------------------------------------

Ref: Pisi mi....

Prelaz :...

Kraj : ... !



***VERZIJA 2***
Transkripcija: Adis Salihbegovic - The Aran
Album        : Od neba do neba


Uvodni riff:
E||--------------------------|--------------------------||
B||--------------------------|--------------------------||
G||--------------------------|--------------------------||
D||--------8-----7-----7h-8--|--------7-----5-----5h-7--||
A||--5--5-----5-----5--------|--3--3-----3-----3--------||
E||--------------------------|--------------------------||


Solo:
Pocetni dio citavo sola se svira sa rucicom..(~)

                        D                      A
E||--------------------|--13~---------12--13--12~-|
B||-------------/10----|--------------------------|
G||--------------------|--------------------------|
D||--------------------|--------------------------|
A||--------------------|--------------------------|
E||--------------------|--------------------------|
                         C                      G
--------------12--13/-|--15~-------15h-13h-12------|
----------------------|------------------------12--|
----------------------|----------------------------|
----------------------|----------------------------|
----------------------|----------------------------|
----------------------|----------------------------|
   B                         F
|-----------------|--------------|
|--13b---18t13r---|--11-13b---13b|
|-----------------|--------------|
|-----------------|--------------|
|-----------------|--------------|
|-----------------|--------------|
                    Ovaj dio se svira tako da se zavije
                    zica za jedan ton,zatim dok je
                    tako zavijena, svira se taping na
                    18-to polju sa prstom desne ruke
 A
------------------------------|
------------------------------|
--12b---10--12b---12h-14------|
--------------------------12--|
------------------------------|
------------------------------|
                                       D
E||--------------------------12-13-12----|
B||--------------11-12----14----------15-|
G||-----------10-------12----------------|
D||-----11-14----------------------------|
A||--12----------------------------------|
E||--------------------------------------|

Jako brz dio,svira se na fazon arpedza...

                 E              F                 G
-------13-15-13-12--12-15-17-15-13-|--13/17-18-17-15-|
----15-----------------------------|-----------------|
-----------------------------------|-----------------|
-----------------------------------|-----------------|
-----------------------------------|-----------------|
-----------------------------------|-----------------|
   A
--15--17-18-17----17-18-17----17-18-17----|
---------------20----------20----------20-|
------------------------------------------|
------------------------------------------|
------------------------------------------|
------------------------------------------|

--17-18-17----15-17-15----13-15-13----|
-----------20----------18----------17-|
--------------------------------------|
--------------------------------------|
--------------------------------------|
--------------------------------------|

--12-13-13----10-12-10----10----------|-----------------|
-----------15----------14----14-11-10-|--11-14-10----10/|
--------------------------------------|-----------12----|
--------------------------------------|-----------------|
--------------------------------------|-----------------|
--------------------------------------|-----------------|


Tekst mi mrsko bilo pisat al ako neko bude trazio
napisat cu i tekst i akorde...