Divlje Jagode - Samo Tren

Transkripcija: Babic Stojan
Napomena     : Stim gitare je Eb(sve zice snizene za pola tona)
               da nebi prestimavali samo pomerite sve tonove
               za jedno polje u nazad.

               Svira se sa dosta DELAY-A


Uvod:
D#||-------------------------------------------------------------------|
A#||------------------------10-12----10----8---7---5---3---------------|
F#||----9h11-12-----9h11-12-------12----11---9---7---5---4-5---4---2---|
C#||--9-----------9------------------------------------------7---5---4-|
G#||-------------------------------------------------------------------|
D#||-------------------------------------------------------------------|

    -----------------------------------------------------|
    -----------------------------------------------------|
    -----------------------------------------------------|
    --5---4---2------------------------------------------|
    ----7---5---3-5---3---2------------------------------|
    ----------------7---5---3-5-7-8-5-7-3-5-2-3-5-0------|

    ---------------------------------------------------|
    ----------7h8-8-8--8p7-7-7/5-5-5/3-3-3-3-3-3-3h5---|
    --7h9-9-9-7---7-7--7---------------4-4-4-4-4-4-----|
    --9---9-9-9---9-9----------------------------------|
    --7---7-7------------------------------------------|
    ---------------------------------------------------|

    ------------------------------|
    ------(5)------------------5--|
    -----------(7)--(5)--(7)------|
    ------------------------------|
    --5h7----5--------------------|
    --------------8----7----5-----|

    -----------------------------|
    -----------------------------|
    -----------------------------|
    --------------------0--------|
    ------5-7-----5--------------|
    --5-7-----3-5---2-3---2-0----|

    ---------------x------| ovi iksici su tri
    ----------5------x----| harmonika ali nisam
    -------------------x--| siguran na kojim
    --2/4-5h7-------------| poljima.
    ----------------------|
    ----------------------|

D#m                  C#
Vise te nema gola je noc
D#m                        C#
Na usne se lijepi ko smola rijec
D#m                            C#
I sta ce mi kletva sa medom i jadom
D#m                       C#
Da visi u dusi nad tvojim gradom
D#m
Odlaziiiiiiisssssss


G#5    F#5         D#5
  Samo tren u meni dah je tvoj
G#5    F#5          D#5
  Samo tren daj bar pamti me
D#m     C#          D#m
Jer sad nemam nista svoje


Koristeni akordi:

   D#m C#  G#5 F#5 D#5
D#|---|---|---|---|---|
A#|-8-|-7-|---|---|---|
F#|-9-|-7-|---|---|-9-|
C#|-9-|-7-|-7-|-5-|-9-|
G#|-7-|-5-|-7-|-5-|-7-|
D#|---|---|-5-|-3-|---|