Divlje Jagode - Sampioni

Transkripcija: Igor Medarevic - mmarko@blic.net
Home         : www.2akordi.net


Uvod

Riff
E-------------------------------
H-------------------------------
G----0-3-0-3-0-3-5---0-3-0-3-0--
D--3-0-3-0-3-0-3-5-3-0-3-0-3-0--
A--3---------------3------------
E-------------------------------
                                   4x
E---------------------------
H---------------------------
G----0-3-0-3-0-3-0-3-3-5----
D--3-0-3-0-3-0-3-0-3-3-5-3--
A--3---------------------3--
E---------------------------

Riff 2
E--------------
H--------------
G----2------3--
D--0------3----
A-------1------
E--------------

Riff 3
E------------------------
H------------------------
G------------------------
D--5-5-5-5-5-5-5-5-5--*--
A--3-3-3-3-3-3-3-3-3-----
E------------------------

* - preci trzalicom preko 6.zice

G5
Znoj sa lica otezava dah
G5
Vjetar siba osjeca se strah
C          B         C  B
Miris guma stipa oci,nos
G5
Lude glave postale su skroz

Ref:

Riff 2
Sampioni
Riff 2
Sampioni
Riff 2      Riff 3
Sampioni  , aha ,formule

Riff

Na betonu jure svaki dan
Ranom zorom da otresu san
Celicni vozaci formuleee
Usijane glave,blesave

Ref;

Sampioni
Sampioni
Sampioni  , aha ,formule

Solo

Riff

Znoj sa lica otezava dah
Vjetar siba osjeca se stra
Miris guma stipa oci,nos
Lude glave postale su skroz

Ref;

Sampioni
Sampioni
Sampioni  , aha ,formule

Riff 2x

Kraj
E-------
H-------
G-------
D--5-5--
A--5-5--
E-------

Solo
E--1/3-3-3-1/3-3-3-1/3-3-1/3-3-3-3-3-1-1/3-3-3-1/3-3-3-3-6-5-4-3--
H--1/3-3-3-1/3-3-3-1/3-3-1/3-3-3-3-3-1-1/3-3-3-1/3-3-3-3-6-5-4-3--
G-----------------------------------------------------------------
D-----------------------------------------------------------------
A-----------------------------------------------------------------
E-----------------------------------------------------------------

E----------------------------
H--3\1--3\1--3\1--3\1--3\1---
G-----3----3----3----3----3--
D----------------------------
A----------------------------
E----------------------------

---------------------------------------------------------
---------------------------------------------------------
--0-2p0h2p0h2p0h2p0h2p0h2p0h2p0hg2p02p0h2p0h2p0h2p0h2p0--
---------------------------------------------------------
---------------------------------------------------------
---------------------------------------------------------

E-----------------------------
H------8--6-8--6-8--6-8--6-8--
G--5/7-7-7--7-7--7-7--7-7--7--
D-----------------------------
A-----------------------------
E-----------------------------

----------------------------------------------------
----------------------------------------------------
--0-3-0-0-5-0-0-5-0-0-7-0-0-5-0-0-8-0-0-7-0-0-10-\--
----------------------------------------------------
----------------------------------------------------
----------------------------------------------------

E--1/3-3-3-1/3-3-3-1/3-3-1/3-3-3-3-3-1-1/3-3-3-1/3-3-3-3-6-5-4-3--
H--1/3-3-3-1/3-3-3-1/3-3-1/3-3-3-3-3-1-1/3-3-3-1/3-3-3-3-6-5-4-3--
G-----------------------------------------------------------------
D-----------------------------------------------------------------
A-----------------------------------------------------------------
E-----------------------------------------------------------------

E----------------------------------------------------------------
H--20h19h18--20h19h18--20h19h18--20h19h18--20h19h18--20h19h18----
G----------19--------19--------19--------19--------19--------19--
D----------------------------------------------------------------
A----------------------------------------------------------------
E----------------------------------------------------------------

E-----------------------------------------------------------
H------8-8-8-8-8-8-8-8-8-8-8-8-8-8--8-6-8-6-6---------------
G--5/7-7-7-5-7-7-5-7-7-5-7-7-5-7-----------7-7-5-3-5-3-0-3--
D-----------------------------------------------------------
A-----------------------------------------------------------
E-----------------------------------------------------------

E-------------------------------------------------
H-------------------------------------------------
G--3-0-5-0-3-0-5-0-3-3----3-0-5-0-3-0-5-0-3-3-----
D--3-0-5-0-3-0-5-0--5-5-/-3-0-5-0-3-0-5-0--5-5-\--
A-------------------------------------------------
E-------------------------------------------------

E----------------------------------------------------
H--3\5------5-3--------------8-8-8-8-8-8-8-----------
G--3\5-3--3-5-3-3-5-3-5--5/7-7-7-5-7-7-5-7-3-5-3-----
D--------5------3-5-----------------------------5-\--
A----------------------------------------------------
E----------------------------------------------------

E----------------------
H--5b-\-1-3------------
G----------3-5-3-5-3b--
D----------------------
A----------------------
E----------------------

E------6p3------------------------
H--6p3----6p3---------------------
G-----5------5p3------------------
D---------------5p3---------------
A------------------5p3---------1--
E---------------------6p3-3p1h3---