Divlje Jagode - Sejla

Transkripcija: Igor Medarevic - mmarko@blic.net
Home         : www.2akordi.net


Uvod - bas

E--------------------------------------
H--------------------------------------
G--------------------------------------
D--------------------------3-5-5-5--5--
A--3-5-5-5-5-5-5-5-3-5-5-5---------3---
E--------------------------------------

Gitara

Riff 1
E----------------------------------
H----------------------------------
G-----------------------------7----  2x
D--5-/7-x-x-x-xx-7--5-/7-x-xx-5-5--
A--3-/5-x-x-x-xx-5--3-/5-x-xx---3--
E----------------------------------

Riff 2
E--------------------------------
H--------------------------------
G-----------------------------7--
D--5-/7-x-x-x-xx-7--5-/7-x-xx-5--
A--3-/5-x-x-x-xx-5--3-/5-x-xx----
E--------------------------------

Riff 3
E---------------------------------
H---------------------------------
G---------------------------------
D--5--7--------3-----3------------
A--3--5--0-3-0---5-0-1--0---3-xx--
E-------------------------3-1-xx--

Riff 4
Bas                          Gitara

E--------------------------- -----------13-15-17b---
H--------------------------- -x-15-13h15------17b---
G--------------------------- -----------------------
D--5-7-7-7-7-7-7-7-5-7-7-7-- -----------------------
A--------------------------- -----------------------
E--------------------------- -----------------------

Riff 1
Oci tvoje gube sjaj
Riff 1
I nasoj prici vec je kraj
Riff 1
Odlazis mi zadnji put
Riff 2
Nisam kriv, a nisam ljut.   mmmmmmm

Refren:

Riff 3
Sejla ...

Riff 3
Sejla ...

Riff 3
Sejla ...

Riff 3
Sejla ...

Riff 4
Oooo,ooo

Riff 1 2x

Pored rijeke pusto sve
Samo sjenke bore se
Gledam tuzno kao pas
Nikad nista od nas.

Refren:

Sejla ...
Sejla ...
Sejla ...
Sejla ...

Riff 4 (samo bas)
Oooo,ooo

Solo
E--------------------------------------------------------------------
H--------------------------------------------------------------------
G--3p0h3p0h3p0h3p0h3p0h3p0h3p0h3p0-2p0h2p0h2p0h2p0h2p0h2p0h2p0hg2p0--
D--------------------------------------------------------------------
A--------------------------------------------------------------------
E--------------------------------------------------------------------

E--------------------------------------------------------------------
H--------------------------------------------------------------------
G--3p0h3p0h3p0h3p0h3p0h3p0h3p0h3p0-2p0h2p0h2p0h2p0h2p0h2p0h2p0hg2p0--
D--------------------------------------------------------------------
A--------------------------------------------------------------------
E--------------------------------------------------------------------

E--------------------------------------------------------------------
H--------------------------------------------------------------------
G--3p0h3p0h3p0h3p0h3p0h3p0h3p0h3p0-2p0h2p0h2p0h2p0h2p0h2p0h2p0hg2p0--
D--------------------------------------------------------------------
A--------------------------------------------------------------------
E--------------------------------------------------------------------

E-------------------------------------------------------
H-------------------------------------------------------
G--3p0h3p0h3p0h3p0-5p0h5p0h5p0h5p0-7p0h7p0h7p0h7p0-7-\--
D-------------------------------------------------------
A-------------------------------------------------------
E-------------------------------------------------------

E-----------------------------------1--1------
H---------------------------------------------
G------------------------2-0-2-3-2-3----3-2---
D-------2-0-2-3-2-3-5-3-5------------------0--
A--5-3-5--------------------------------------
E---------------------------------------------

impro
E------------------10-13-10------------------------
H----------------10--------13-10-------------------
G--10--12-10--------------------12-10--------------
D-----------12-10--------------------12-10---------
A-----------------------------------------12-10----
E----------------------------------------------10--

E-------------------------------------------------------------
H----------------------------3---------------------3-4/6------
G-----------------222-333-555-----------------2/3-5-----7b-\--
D--000-222-333-555-------------0-0-2-2-3-3-5-5----------------
A-------------------------------------------------------------
E-------------------------------------------------------------

E------------------------------------------------
H------------------------------------------------
G--3-0-5-0-3-------------3-x-5-0-3---------------
D-------------5-3-0-3-5-------------x-0-3-0-3-5--
A------------------------------------------------
E------------------------------------------------

E--------------------------------------------------------------
H-------8-8-8-8-8-8-8-8-8-8-8-8-8-8b--8-6-8-8-8-6---8-6--------
G--5/7--7-7-5-7-7-5-7-7-5-7-7-5-7-----------7--7-7-7---7-5-----
D---------------------------------------------------------8-5--
A--------------------------------------------------------------
E--------------------------------------------------------------



E------------------------------------------------------------------
H--8/10--10-10-10-10-10-10-10-10-10-10-10-10-10-13-13-12-12-10-10--
G--7/-9---9--9--7--9--9--7--9--9--7--9--9--7--9-12-12-11-11--9--9--
D------------------------------------------------------------------
A------------------------------------------------------------------
E------------------------------------------------------------------

E------------------------------------------------------------------
H--13-13-12-12-10-10-10-10-10-10-10-10-10-10-10-10-10-10-10-10-10--
G--12-12-11-11--9--9--9--9--7--9--9--7--9--9--7--9--9--7--9--9--9--
D------------------------------------------------------------------
A------------------------------------------------------------------
E------------------------------------------------------------------

E--------------------------------------
H--8/10-10-10-10-10-10-10-10-10-\-\-\--
G--7/-9--9--9--9--9--9--9--9--9-\-\-\--
D--------------------------------------
A--------------------------------------
E--------------------------------------

Refren

* Ovde u refrenu samo kada prva 2 puta govorite Sejla
* svirate Riff 3. Za sva ostala ponavljanja svirate u
* pozadini Figuru 1. To je sve

Figura 1
E-------10----------13-10-\--------
H---13b----10-13-10---------11-10--
G---------------------------12-10--
D----------------------------------
A----------------------------------
E----------------------------------

* Ovaj red iznad kojeg pise 'impro' to je moja improvizacija koja dosta
* podseca na taj dio koji je stvarno uvrnut.


***VERZIJA 2***
autor: divlje jagode
pjesma: sejla
Transkripcija: Adrijan J. (djole_12@yahoo.com)
Home         : http://2akordi.net



Oci tvoje gube sjaj             C-D
I nasoj prici vec je kraj       C-D
Odlazis mi zadnji put           C-D
Nisam kriv, a nisam ljut.       C-D

Refren:
Sejla ...       D, A, A#, F
Sejla ...       D, A, A#, F

Pored rijeke pusto sve  C-D
Samo sjenke bore se     C-D
Gledam tuzno kao pas    C-D
Nikad nista od nas.     C-D

Refren:
Sejla ...       D, A, A#, F
Sejla ...       D, A, A#, F

***VERZIJA 3***
Transkripcija: Sale.S


C Dm              C Dm  F C
  Oci tvoje gube sjaj
C Dm                   C Dm  F C
  i nasoj prici vec je kraj
C Dm                C Dm  F C
  Odlazis mi zadnji put
C Dm                  C Dm  G
  nisam kriv, a nisam ljut


 F  Dm  B F
    Sejla
e|------------------------------
H|------------------------------
G|------------------------------        3x
D|---3--0--0-2-3-0--------------
A|-----------------0-1--1-0-----
E|--------------------------1---

  A
  ooo

  Pored rijeke pusto sve
  samo sjenke vole se
  gleda, tuzno kao pas
  nikad nista od nas

  Sejla..


***VERZIJA 4***
Transkripcija: sid_
Info         : BASS transkripcija


Uvod:
G-----------------------------
D-----------------5555555---3-
A-3-5-5-5-5-5-5-5---------5---
E-----------------------------

Sa gitarom:
G-----------------------
D-----------------3~----
A-3-5-5-5-5-5-5-5----3~-
E-----------------------

Refren:
G--------------------|---|
D--------------3-0---|---|
A-8-5---0-3-0--------|---|
E------------------5-|6-1|

***VERZIJA 5***
Transkripcija: bato besirovic (armin_besirovic@yahoo.co.uk)

BASS

U glavnom dijelu treba stopati zice nakon svakog okidanja,
a refren se mora poslusati jer nije lagan. U refrenu kad se
ide na hammer-on dio treba to uvjezbati uz pjesmu, nije
tesko.

Glavni dio:
G|-------------------------------------------------------|
D|-------------------------------------3--5--5--5-----5--|
A|-3--5--5--5--5--5--5--5--3--5--5--5--------------3-----|
E|-------------------------------------------------------|

Refren (izvoditi fakat brzo):
G|-------------------------------------------|
D|-------------------3-----------------------|
A|-3--5--------3--------5--0--1--0-----------|
E|-------3h5----h5-----------------3--1--0---|