Divlje Jagode - Sta Je To U Tebi

Transkripcija: alko rocker


        E       G D        E           D
E----------------------------------------------------
H-------5-5---5-8-3--------5-5---5---5-3-------------
G-------4-4---4-7-2--------4-4---4---4-2-------------
D-------2-2-x-2-5-0--------2-2---2-x-2-0-------------
A----------------------------------------------------
E--0-0----------------0-0----------------------------


Em
Pogledaj mi oci , cakle se u noci ,
          D                     Em       G D
samo tebe traze , zbog tebe je taj sjaj...
Em
Pogledaj mi ruke , ne znaju od muke ,
             D              Em
sta da nocas rade , da se izvade...

      Em  C  D                Em
ref : Sta je to , sta je to u tebi ,
      Em  C D                 Em
      pitam se , sta nosis to u sebi ,
      Em  C  D                  Em
      sta je to , sto moje misli krade ,
      Em  C  D               Em
      pitam se ima li za nas nade ...

Ne volim kad cutis , znam da nesto mutis ,
daj usne otvori , nesto progovori...
ljubav je ko svijeca , lazljivica sreca
jedan dan ?????, drugi jos je veca...

ref : Sta je to ,.....itd....

solo: solazica je jednostavna

ref: .... - nekoliko puta

U pjesmi se ne svira obicni G dur , vec gore navedeni...


***VERZIJA 2***
Transkripcija: Igor Medarevic - mmarko@blic.net
Home         : www.2akordi.net


SOLO:
E---------10----------------8----------
H------12------12--------10-----10-----
G--7/9-------9----9--5/7------7----7---  2x
D--------------------------------------
A--------------------------------------
E--------------------------------------
                 ~~~~~~~
E----------17/18b18b18b18b18b18b18b18b18b18b18b18b18b--
H------------------------------------------------------
G------------------------------------------------------
D--x-x-9-\---------------------------------------------
A--x-x-9-\---------------------------------------------
E------------------------------------------------------

E--18b18b18b18b18b18b18b18b18b18b18b18b18b18b18b18b18b--
H-------------------------------------------------------
G-------------------------------------------------------
D-------------------------------------------------------
A-------------------------------------------------------
E-------------------------------------------------------

E--18b18b18b18b18b18b18b18b18b18b18b18b18b18b18b18b18b--
H-------------------------------------------------------
G-------------------------------------------------------
D-------------------------------------------------------
A-------------------------------------------------------
E-------------------------------------------------------

E--18b18b\16b16b16b16b-16b-16b-16b-16~~-\--12b-\-------
H------------------------------------------------------
G------------------------------------------------9b-\--
D------------------------------------------------------
A------------------------------------------------------
E------------------------------------------------------

E--12b-\--------------8-10b-x-8h0-------------------
H-------------------10-----------10h0p8h0-7-8-10-\--
G--------9b~~-\--5/7--------------------------------
D---------------------------------------------------
A---------------------------------------------------
E---------------------------------------------------

E-----------------------------------------------------
H---------8---8---8---8b-\----------------------------
G---------------------9b-\----------------------------
D----9-999-999-999-999--------------------------------
A--7-7-777-777-777-777-----3/5-7-7-7b-\---------------
E----------------------------------------1/3-5-5-0-3--

E-------10b-10b-10b---------------18b--\16b--\--
H--10/12------------11p10--10-------------------
G------------------------12--9b-\---------------
D-----------------------------------------------
A-----------------------------------------------
E-----------------------------------------------