Divlje Jagode - Sve Iz Inata

Transkripcija: Igor Medarevic - mmarko@blic.net
Home         : www.2akordi.net


Uvod

Riff 1
E---------------------------------------------------
H---------------------------------------------------
G----------------------5-5---------------------5----
D--7-xx-7-xx-7-xx-7-xx-5-5-5-xx-5-xx-5-xx-5-xx-5-5-- 4x
A--7-xx-7-xx-7-xx-7-xx-3-3-5-xx-5-xx-5-xx-5-xx-3-5--
E--5-xx-5-xx-5-xx-5-xx-----3-xx-3-xx-3-xx-3-xx---3--

Riff 2
E------------------------------
H------------------------------
G-----------------------7-7----
D-----------------7-7-7-5-5-7--
A--2--2-2-2-2-2-2-5-5-5-----5--
E--0--0-0-0-0-0-0--------------

Riff 3
E-----------------
H-----------------
G-----------------
D-----------------  * - preci trzlicom preko 6.zice
A--2-2-2-2-2-5----
E--0-0-0-0-0-3-*--


Riff 1
E da si ti princeza ljubavi
Riff 1
A ja Romeo, uh sto bi volio
Riff 1
E da si ti kraljica bitangi
Riff 1                      (C H A G)
A ja sam n,nova, cuvar snova.

Ref:

Riff 2
Sve iz inata
Riff 2
Sve iz inata
Riff 2
Sve iz inata
Riff 3
Tebi iz inata.

Riff 1 2x

E da si ti iz bajke ljepotica
Ja bi na konju glumio princa
E da si ti i dama i gospoda
Ja bi u cistace, perace prozora.

Ref;

Sve iz inata
Sve iz inata
Sve iz inata
Tebi iz inata.

Solo
E---------------------------------------------------------------
H---------------------------------------------------------------
G---------------------------------------------------5-------5---
D-------------------------------------------------5--7-\--5--7--
A--33333333333333333333333--3-5---------------7-5--------7-7----
E-------------------------5-----3b--3/5-8-7-5----8--------------

E--------------------------------5b--5-3-5----------------------
H-----------------------------------------3-4-5-3-5-3----1-1-1--
G--7b--5-7b-5-7b-5-7b-5-7b-5-----------------------5--0h2-------
D---------------------------7-7-\-------------------------------
A---------------------------------------------------------------
E---------------------------------------------------------------

E--3b---------------------------------------
H-----3--5-3-5-3-3--------------------------
G-------------5----4h5p4-4------------------
D-----------------------7-5-7---------------
A----------------------------5-7-3-5-3-3-\--
E-----------------------------------5-------

--------------------------------------
--------------------------------------
-----------------------------------5--
----------------------2-2-3-2-3-2-2---
-------2-2-3-2-3-5-3-5-5---------5----
--5-3-5-5-----------------------------

E------------------------
H---3/5-6-5--6-5---------
G--5----5--7-5--7-5------
D-------------------7-\--
A------------------------
E------------------------

E--8p5---8p5---8p5---8p5---8p5---8p5---8p5-------
H-----8p5---8p5---8p5---8p5---8p5---8p5---8p5-8--
G------------------------------------------------
D------------------------------------------------
A------------------------------------------------
E------------------------------------------------

E-----------------------
H---------5-------------
G--6/7b-7-5-5-7-5-7-5b--
D-----------------------
A-----------------------
E-----------------------

Ref; 2x
Riff 1
Kraj

Kraj
E-------------------------------------------------------------
H-------------------------------------------------------------
G----------------------5-5------------------------------------
D--7-xx-7-xx-7-xx-7-xx-5-5-5-xx-5-xx-5-xx-5-xx----------------
A--7-xx-7-xx-7-xx-7-xx-3-3-5-xx-5-xx-5-xx-5-xx-3-2-------7-\--
E--5-xx-5-xx-5-xx-5-xx-----3-xx-3-xx-3-xx-3-xx----5-3----5-\--



***VERZIJA 2***
Transkripcija: Adrijan J. (djole_12@yahoo.com)
Home         : http://2akordi.net


Uvod : Am, C, G, C, G

E da si ti kraljica ljubavi     A5, C5, G5, C5, G5
A ja Romeo, uh sto bi volio     A5, C5, G5, C5, G5
E da si ti kraljica bitangi     A5, C5, G5, C5, G5
A ja sam n,n-nova, cuvar snova. A5, C5, G5, C5, G5

Refren:
Sve iz inata            Em,D
Sve iz inata            Em,G
Sve iz inata            Em,D
Tebi iz inata.          Em,G

E da si ti iz bajke ljepotica
Ja bi na konju glumio princa
E da si ti i dama i gospoda
Ja bi u cistace, perace prozora.

Refren:
Sve iz inata            Em,D
Sve iz inata            Em,G
Sve iz inata            Em,D
Tebi iz inata.          Em,G