Divlje Jagode - Zauvjek Tvoj

Transkripcija: Babic Stojan


Verse:
A       Hm       F#m   E     F#m
Zima je decembar mokri snjegovi
A        Hm      F#m   E   F#m
Svuda su tragovi tvoji ostali
A       Hm       F#m   E    F#m
Na tren pomislim nisam ni zasta
A          Hm     F#m  E      F#m
Nikad gore godine duso vjeruj mi

Pre-chorus:
D           A        D    E    F#m
Sjecanja me bole sva moja ljubavi
D         A               E       D
Sibaju me vjetrovi, modri vjetrovi

Chorus:
        F#m    D   A   E
Zauvjek tvooooooooooooooooojjjj
        F#m    D   A   E
Zauvjek tvooooooooooooooooojjjj


Solo:
E||-------18----17--15-------------------------------------------------|
B||--/15----------------15----15----16----15h16p15---------------------|
G||------------------------------------------------17--15---14\12--15--|
D||--------------------------------------------------------------------|
A||--------------------------------------------------------------------|
E||--------------------------------------------------------------------|

Sjecam se ti i ja moja jedina
Pamtim sve ti i ja hladne ulice
Mjesec svud oko nas a ti ljubis me
Topla si drhtis sva dali sjecas se

Stajala si tu kraj mene sva u suzama
Kao srna uplasena, zbunjena

Zauvjek tvoj, Zauvjek tvoj

   heavy palm mute
E||--------------------------------------------------------------------|
B||--------------------------------------------------------------------|
G||------------------------------------------------4/7-6-4-------------|
D||-4-4-4-4-4--4-4-4-4--------------------4-4-4-4--4/7-6-4-------------|
A||-0-2-2-0-2--0-2-0-2--4-4-4-4--4-4-4-4--2-2-0-2--2/5-4-2--4-4-4-4----|
E||---------------------2-2-0-2--0-2-0-2--------------------2-2-0-2----|

E||--------------------------------------------------------------------|
B||--------------------------------------------------------------------|
G||--------------------------------------------------------------------|
D||--------------------------------------------------------------------|
A||--------------------------------------------------------------------|
E||--2--4--5--0---------2--------2--4--5--0----------------------------|

E||--------------------------------------------------------------------|
B||----------------------------------------------------------------10--|
G||----------------------------------------9----9-11-9-11-12-11-12-----|
D||----------------9----9-11-9-11-12-11-12---12------------------------|
A||-/9h11-12-11-12---12------------------------------------------------|
E||--------------------------------------------------------------------|