Divlje Jagode - Zvijezda Sjevera

Transkripcija: NEred_source


Uvod:
E||------3-5/7\5-3-2h3p2p0-2--0-------|-----------------------5/7\5---------|
B||----3------------------------5-5-3-|-----------------------------7/8\5-7-|
G||-----------------------------------|---5----4h5p4-2-4---*7---------------|
D||--5--------------------------------|-----*5-----------*5-----------------|
A||-----------------------------------|-------------------------------------|
E||-----------------------------------|-------------------------------------|

   --0-----2--3--3---------|
   ----5-5-------3---------|
   --------------0---------|
   --0-----0-----0---------|
   --------------2---------|
   --------------3---------|

info: primer 5/7\5 okidate samo prvu peticu ostatak odslajdujete
      isto to i kod 7/8\5 okidate samo 7.
      Brojeve oznacene * svirate skroz brzo jedva da se cuju
      kao cisti tonovi.Kod sola brojeve u zagradama svirat priguseno

Verse:
G             C
Sedam godina je iza nas
G             C
Zvjezdo sjevera.......

Chorus:
       D   Am
Jos si lijepa
     C          G
Isto kao i prvi put
     Em       D
Meni najljepsa
C       Em Am G
Zvjezda sjevera

ova cetir akorda na zvjezda sjevera bolje da odsvirate kao
|--------------|
|--------------|
|--------------|
|--------------|
|--3--2--0-----|
|-----------3--|

  D    C    Am   G      Em
--2----0----0----3----|-------|
--3----1----1----3----|--0----|
--2----0----2----0----|--0----|
--0----2----2----0----|--2----|
-------3----0----2----|--2----|
-----------------3----|--0----|

solo:
E||-------------------------|---------------------------|
B||-------------------8-----|--10pbr--8---12h13----12---|
G||-------------7--9-----9--|---------------------------|
D||------5--7/9-------------|---------------------------|
A||--5/7--------------------|---------------------------|
E||-------------------------|---------------------------|

------------------------------|-----------------------------------|
--------------15--------15b---|----12h15----15---(15)-(12)----12/-|
--14--12--14b-----12----------|-------------14b---14---12-----12/-|
------------------------------|----------------------------14-----|
------------------------------|-----------------------------------|
------------------------------|-----------------------------------|

-----------------------------|-------------------------------------------|
----12h13--13-12-------------|---------------15b---17-15-----------------|
----12-----------12----------|--------12-12--------------16-17--16h17p16-|
--------------------14-12----|--12h14------------------------------------|
-----------------------------|-------------------------------------------|
-----------------------------|-------------------------------------------|

--17b---15-17br---15-17brp15-----|--14--15--17---14--15h17p15p14-15--||
-----------------------------17--|-----------------------------------||
---------------------------------|-----------------------------------||
---------------------------------|-----------------------------------||
---------------------------------|-----------------------------------||
---------------------------------|-----------------------------------||

b=bend
h=hammer
p=pull of
pbr=pre-bend relase (nategnut okinut pa otpustit)

***VERZIJA 2***
Transkripcija: Vuki

UVOD:  G D C G,
       G D C D G,G4,G,G4 

 G               C
Sedam godina je iza nas
 G           D7
Zvijezdo sjevera
         G 
Kad sam patio
        C 
Ti si shvatila
 D                G,G4,G,G4
Da sam bez tebe sam

 G               C  
Sedam godina je iza nas
    G         D
To nije mala stvar
        G
Sto si starija
        C
Sve si sjajnija
    D7           G
Ti zvijezdo sjevera

       D    a
Jos si lijepa
      C          G
Isto kao i prvi put
      C     D
Meni najljepsa
  C       D    G
Zvijezda sjevera

  G               C
Sedam godina ti cekas
 G               D
Da kazem rijeci te
           G
Za tvoje cekanje
            C
Rijeci su preslabe
        D           G
Nek ti pjesma kaze sve