Djordje Balasevic - Ljerka

Transkripcija: Vanja Mrsa (vanja.mrsa@freesurf.ch)
Album        : Dnevnik starog momka

G                                  H7
Korzo je imao svoj red...neki svoj uhodani sled...
        Em                     C
uvek se dobro znalo ko probija led...
         G                D
melanija matic...tacna ko satic...
        Em         C          G        D
korakom rimske bozice proseta duge nozice...
pa druga zvezda serije...iz pravca kafeterije...
na opstu radost drustva s periferije...
Veronika Bacic...meden kolacic...
u tesnoj suknjici od zmijske kozice...

D
Al kad se spusti moja dragana...
   C
ko ruska balerina lagana...
         G                   D
korzo se zanjise...Spalir se nadize...
         C        D           G         G7
sve se venere pomere za jedno mesto nanize...
C                           G                        Em
bela haljina u visnjama...o,najlepsa je,bez razmisljanja...
      D                             C            D         G
crven kais a strukic stisnjen...vau,te su visnje bile svevisnje

Kod apoteke obicno ,bese klaustrofobicno
jer to je mesto s kog se vidi odlicno...
mia Radenkovic...uobrazenkovic...
kada u stilu ludice proseta besne dudice...
i najzad,s letnjim pegama...od mnogih tajno cekana...
u pratnji brata,nabildanog zvekana...
Lela Doronjski...dug repic konjski...
i one skandalozne bez bermudice...

Al kad se spusti moja dragana.......

Bela haljina u visnjama...ma,najlepsa je bez razmisljanja...
i cim se pogled tako zlatiznam da cemo opet visnje obrati...

***VERZIJA 2***
Transkripcija: Miralem Batlak


Solo:
e-5~-|-15-12-10-----10----------|---6-7-10--10------------|--------------6-5--3-0-|
B----|---------11-12--10-8-10-8-|-8---------12-10-12---12-|--------8-10-8---------|
G----|--------------------------|--9--------------12-9-12-|-------9---------------|
D----|--------------------------|-------------------------|-10~-12----------------|
A----|--------------------------|-------------------------|-----------------------|
E----|--------------------------|-------------------------|-----------------------|

e-10--7---------------|-10--10-------10--10-------|----15--12---------------|
B----------8------8~~-|-12--10--8-8--12--10--8----|-8--15----15-12--11-12---|
G-------------9-------|----------9------------9~~-|----------------------12-|
D---------------------|---------------------------|-------------------------|
A---------------------|---------------------------|-------------------------|
E---------------------|---------------------------|-------------------------|

e----------6-5-3-6-|-8-9-8-6---6--6-3-1--------|--------3-1-0---0-----------|
B----8-10-8--------|--------8----------3-1-2~~-|-1-1-0-3-----3-1-1-3-0------|
G---9--------------|---------5-----------------|--3-3---------------3-------|
D-12---------------|---------------------------|----------------------------|
A------------------|---------------------------|----------------------------|
E------------------|---------------------------|----------------------------|

e--0-3-0--6-5-0-3-|--0-3-5-3-6-5--3-0-6~~-|-0-3~~--0--------------|---------------------|
B-3---------------|-4---------------------|---------1--2-1--------|---------------------|
G-----------------|-----------------------|---------------3-0-----|--0---0---0---0------|
D-----------------|-----------------------|------------------2-0~~|-2-0-2-0-2-0-2-0-2-0-|
A-----------------|-----------------------|-----------------------|--------------------2|
E-----------------|-----------------------|-----------------------|---------------------|

e--------------------------|
B--------------------------|
G----0------0--------------|
D-0-2--0-2-0-2--0----0~~---|
A-----------------2--------|
E--------------------------|