Djordje Balasevic - Marim Ja

Transkripcija: Miroslav Obradovic (micky@EUnet.yu)


- - - - - - - - - - - - - - - - - - - - - - - - - - - - - - - - - - - - 
Jedini egzotican akord moze biti trozvuk H umanjeno:

    EADGHE         EADGHE
Ho: x2343x   ili   x23431

...u drugom hvatu se prvim prstom pritiskaju zice A i E, ko moze ;-)
- - - - - - - - - - - - - - - - - - - - - - - - - - - - - - - - - - - - 


  (Am)      (Dm)(Am)      (F)  (C)                G
    Najbolje godine ovog zivota mog, sjajne i rdjave,
   Dm               Ho             E                 Am
    samo su kliznule ko sila Dunava pod senkom tvrdjave.
   Am      Dm  Am         F   C                 G
    Godine lavova, vina i makova, prosle su lagano,
   Dm                  Ho               E               Am
    ko carski porucnik, mlad i uobrazen, sa svojom draganom.

       Am        Dm   E                     Am  (prelaz na C, bas: A H C)
        Al marim ja... to su samo kapi vremena,
       C                    G  E                       Am
        prosute ko saka semena, po sirokoj njivi Gospodnjoj.
                Dm   E                      Am  (prelaz na C, bas: A H C)
        O marim ja... gde su sada davni nemiri,
       C                    G  E                       F    E       Am
        razigrani beli leptiri, dani zvezda poklonjeni njoj, zauvek...


(solo:

       Am                                          F
    D=-------0---------|-2-0-----------|--------------|
    A=-0-2-3---3-2--0--|-----3-2-3--0--|-0-2-3-2-0----|
    E=-----------------|---------------|-----------1--|

       E                               Am
    D=------0-------0------|-2--0-------------|
    A=----0---3--2----3-2--|------3-2--0-2-3--|
    E=-0-------------------|------------------|

       Am                                          F
    D=-------0---------|-2-0-----------|--------------|
    A=-0-2-3---3-2--0--|-----3-2-3--0--|-0-2-3-2-0----|
    E=-----------------|---------------|-----------1--|

       E                               Am
    D=------0-------0------|-2--0-------------|
    A=----0---3--2----3-2--|------3-2--0---0--|
    E=-0-------------------|-------------4----|

)
    

   Am      Dm  Am          F    C               G
    Veliki datumi, cekani, cifrani kruzicem crvenim,
   Dm             Ho               E                 Am
    tiho su minuli ko oblak pamucni nad tornjem crkvenim.
   Am        Dm  Am        F    C                  G
    Najbolje godine ovog zivota mog prosle su podmuklo,
   Dm               Ho                  E           Am
    malo sam zastao, lose ih drustvo vec zauvek odvuklo.


       Am        Dm   E                     Am  (prelaz na C, bas: A H C)
        Al marim ja... to su samo kapi vremena,
       C                    G  E                       Am
        prosute ko saka semena, po sirokoj njivi Gospodnjoj.
                Dm   E                      Am  (prelaz na C, bas: A H C)
        O marim ja... gde su sada davni nemiri,
       C                    G  E                        F    E
        razigrani beli leptiri, vreme zvezda poklonjeno njoj, bolje nije moglo...

(kraj:

    Dm Am, Dm Am, Ho Am

)