Djordje Balasevic - Menuet

Transkripcija: Kristian Vlasic
Home         : http://yurope.com/people/sen/The.Book.Of.Home/akordi


Am                         Dm
U pet i petnaest je zvonio sat
        E              Am
Jednoga jutra na kraju leta
Am                       Dm
U sest i deset je kretao voz
           E            Am
S nekog perona na kraju sveta
         E        Am
Mene je cekao taj voz

   Kraj mojih nogu je spavao pas
   Rekoh mu tiho: Hej, bezi odatle
   Otvorih vrata, izadjoh na trem
   Na kom su cvetale bele muskatle
   Pomislih: To je mozda taj dom

Am       Dm             E
Nije me cula, mirno je snila
       C        G      Am
Svoje lepeze i svece i cipke
Am        Dm           E
Snila je dane mirne i nezne
         C    G        Am
Ko crno-bele klavirske tipke

      E            Am
A u zivotu sama na svetu
      E            Am
U menuetu trazila spas

   Sidjoh pred kucu na prasnjavi put
   Ko neki lopov, polako i tiho
   Ja nisam bio taj vitez za nju
   Mada mi govore da sam Don Quijote
   Al' to je sasvim druga stvar

   Bila je zvezda, bila je pesma
   Svaki dan druga a vecito ista
   Snila je dobra stara vremena
   I svog Chopina, i Bacha, i Liszta

   Mozda ce sama, u drugom svetu
   U menuetu naci svoj mir

   Od tad je prosao vek ili dva
   Javi se retko ponekom kartom
   I ko zna gde je, ne zelim da zna
   Koliko ceznem za dalekim martom
   Kad sam je sreo prvi put

   Bila je zvezda, bila je pesma
   Svaki dan druga a vecito ista
   Snila je dobra stara vremena
   I svog Chopina, i Bacha, i Liszta

   A u zivotu sama na svetu
   U menuetu trazila spas

   Jos uvek lutam gde kraj puta
   Pamte me mnoge provincijske pruge
   Kriju me mracne jeftine krcme
   Noci su ponekad guste i duge

   Nestajem tada u nekom svom svetu
   I menuetu, u menuetu


 ***VERZIJA 2***


U pet i [Am]petnest je zvonio [G]sat,
jednoga [E]jutra na kraju [Am]leta.
U sest i [Am]deset je kretao [G]voz
s nekog pe[E]rona na kraju [Am]sveta
- mene je [E]cekao taj [Am]voz... [Am]

Kraj mojih [Am]nogu je spavao [G]pas,
rekoh mu [E]tiho, "Hej, bezi o[Am]datle".
Otvorih [Am]vrata, izadjoh na [G]trem
na kom su [E]cvetale bele mus[Am]katle.
Pomislih, [E]to je, mozda, taj [Am]dom. [Am]

Nije me [F]cula, mirno je [G]snila
svoje le[C]peze i [G]cvece i [Am]cipke.
Snila je [F]dane, mirne i [G]nezne,
k'o crno-[C]bele [G]klavirske [Am]tipke.

A u zi[E]votu, sama na [Am]svetu,
u menu[E]etu trazila [Am]spas.


***VERZIJA 3***
U[Am] pet i petnest je zvonio [G]sat
jednoga [E]jutra na kraju [Am]leta.
U sest i deset je kretao [G]voz
s nekog [E]perona na kraju [Am]sveta
mene je [E]cekao taj [Am]voz...

......................

Nije me [F]cula mirno je [G]snila
svoje le[C]peze i [Em]svece i [Am]cipke.
Snila je [F]dane mirne i [G]nezne
k'o crno - [C]bele [Em]klavirske [Am]tipke.

A u zi[E7]votu sama na [Am]svetu
u menu[E7]etu trazila [Am]spas.

***VERZIJA 4***
Transkripcija: Igor Medarevic - mmarko@blic.net
Home         : www.2akordi.net


Uvod:
E---------------------------------------6-------------
H--2/7-----5/7-6--6h7p6---------------6---9-7-6-------
G------5-8-------------8---5--8--6--8----------8-6-8--
D------------------------7----------------------------
A-----------------------------------------------------
E-----------------------------------------------------

E-------------------------------------------9-11-13-14b--
H--6-7---------------------------------11-13-------------
G-----6--5h6p5-\-3-------------10-11-13------------------
D-------------------11-10-11-13--------------------------
A--------------------------------------------------------
E--------------------------------------------------------

E--------14-13--14-16-14-13-------------------------13--
H--13-16-------------------16-14-16-----13-16-14-16-----
G------------------------------------14-----------------
D-------------------------------------------------------
A-------------------------------------------------------
E-------------------------------------------------------

E--------------13-14b-13h14p13-11-\-9-8-6----------------------
H--14--13-14-16---------------------------9-7-6----------------
G----15-----------------------------------------8-6-5-----5----
D-----------------------------------------------------8-7---8--
A--------------------------------------------------------------
E--------------------------------------------------------------

Solo:
E--------------------------9-11-13-14b--
H---------------------11-13-------------
G-------------10-11-13------------------
D--11-10-11-13--------------------------
A---------------------------------------
E---------------------------------------

E--------14-13--14-16-14-13-------------------------13--
H--13-16-------------------16-14-16-----13-16-14-16-----
G------------------------------------14-----------------
D-------------------------------------------------------
A-------------------------------------------------------
E-------------------------------------------------------

E--------------13-14b-13h14p13-11-\-9-8-6-------------------
H--14--13-14-16--------------------------9-7-6--------------
G----15---------------------------------------8-6-5----5----
D--------------------------------------------------8-7---8--
A-----------------------------------------------------------
E-----------------------------------------------------------