Djordje Balasevic - Neki Novi Klinci

Transkripcija:Fran Rus
Home         :http://yurope.com/people/sen/The.Book.Of.Home/akordi

 
 
 
A7                                Dmsus4  Dm                 
  slide
-------------|-------------------|-------|------------------|
-------------|-------------------|-------|------------------|
2-------14---|--------12--10--9--|--12---|---10--10--12--14-|
-------------|-------------------|-------|------------------|
-------------|-------------------|-------|------------------|
-------------|-------------------|-------|------------------|
 
B                 A7                Dm
-----------------|-----------------|-------------|
-------18--17--15|-----17--15--14--|--15---------|
--15-------------|-14--------------|-------------|
-----------------|-----------------|-------------|
-----------------|-----------------|-------------|
-----------------|-----------------|-------------|
 
     Dm           F           C      Cadd4     C
Moj deda vec dugo ore nebeske njive
     Gm                                    Dm
Ali baka jos cuva sve stvari i sliku naseg sveca
     Dm          F           C            Cadd4  C
Na dan kad sam rodjen tu je posadjen orah
     Gm                                      Dm
I u avliji pod gustom krosnjom sad igraju se deca
 
          Bmaj7             E       A         Dm
Neki novi klinci, neki novi klinci, neki novi klinci
 
                sl.
---------------s--10---9---8---7---6----
--3---5---6-----------------------------
----------------------------------------
----------------------------------------
----------------------------------------
----------------------------------------
 
          Bmaj7             E       A         Gm    Gm Am? B C
Neki novi klinci, neki novi klinci, neki novi klinci
 
   Kroz maglu treperi devet sveca na torti
   Kad sam dobio par mandarina i malog belog zeca
   U maju jos uvek zriju komsinske baste
   Ali tresnje i zelene kajsije kradu druga deca
 
   Moj drugar Milutin, druga klupa do vrata
   Ima sina od cetiri i po i uci ga da peca
   Ponekad ga sretnem, mahne kroz prozor kola
   A u porti (?) za loptom sad jurcaju neka druga deca
 
   A ja, ja se kockam s prevarantom zivotom
   Iz rukava on svakoga dana izvuce nekog keca
   I stariji mi kazu, sad si u pravom dobu
   A u ulici Jovana Cvijica rastu druga deca

   
   
***VERZIJA 2***
   

Moj [Dm]deda vec dugo 
[F] ore nebeske [C]njive. [C] 
Ali [Gm]baka jos cuva sve [Gm]stvari 
i sliku naseg [Dm]sveca. [Dm] ...

Neki novi [F]klinci, neki novi [C]klinci, 
neki novi [Dm]klinci... 

Neki novi [F]klinci, neki novi klinci, 
neki novi [Dm]klinci... 


***VERZIJA 3***

Moj [Dm]deda vec dugo[Dm][C][F]
[F]ore nebeske [C]njive 
ali [Gm]baka jos cuva sve stvari
i sliku naseg [Dm]sveca.  

Na [Dm]dan kad sam rodjen [Dm][C][F]
[F]tu je posadjen [C]orah 
i u avliji pod gustom krosnjom
sad igraju se [Dm]deca.

Neki novi [Bmaj7]klinci.[E][A][Dm];[B][E][A][Gm]

Prelaz:[A][B][C]



***VERZIJA 4***
Moj [Am]deda vec dugo 
[C] ore nebeske [G]njive. 
Ali [Dm]baka jos cuva sve stvari 
i sliku naseg [Am]sveca.

........

Neki novi [Em]klinci,...[E][Am]