Djordje Balasevic - Regruteska

Transkripcija: Goran Stefanovic (profa@tesla.rcub.bg.ac.yu)
Poslao       : Goran Stefanovic (profa@tesla.rcub.bg.ac.yu)
Home         : http://members.xoom.com/yutablature


Uvod
   C                                 G
   |       |       |       |         |       |       |       |
E------0---0-----------0-3-1---0---|-3---------------------1-0------|
B--------3---1---------------1---1-|-3-3-3-1-3-----------3-----0-3--|
G--------------0-------------------|-0---------0-------------------0|
D----2-----------2---2-------------|-0-----------5-4-2--------------|
A--3---------------3---------------|-2-----------5-4-2-2------------|
E----------------------------------|-3-----------3-2-0--------------|


   Asus4   Am      Am/F              E
   |       |       |       |         |       |       |       |
E------------------------0---------|-------------0---0--------------|
B--3-1-1-0-1---------------1-------|---------0---0---0--------------|
G--2---------2---------2-----------|-----1---1---1---1--------------|
D--2-----------2-----2---------2---|-----2---2---2---2--------------|
A--0-------------------------------|---2-------------2--------------|
E----------------0-1---------1---1-|-0-----0---0---0-0--------------|



Am    4X

Am
Sine moj ti se majke secas nejasno

Dobre senke iznad kolevke

                        Dm (bas: D C B C)
Poc'o si da pamtis prekasno

                     E
Osluskujem lepet andjela

                         Am     E
Znacu valjda da je nadjem ja?


Mani me, nas sam dom k'o cergu selio
Tepanja na vino mirisu
Njene stvari sam razdelio
Svaki praznik minu cuteci
Sebi nisam znao uteci


C
Stade sve samo zivot prodje

G
Sine moj oci, njene plave

Am
   Stize dan da u vojsku podjes

E
   Cudni se ovde sveci slave


Sine moj kako da te pustim?
Ti si sve sto mi od nje osta'
Di ces s tim trepuskama gustim?
Zivot bas ne zna sta je dosta


Ma slusaj njih sto uz bojni poklic legaju
Pevaju u slavu nozeva
Pevaju pa onda begaju
Poslo vreme s goreg na gore
Razigralo one najgore

Sine moj gajde ce ti baba kupiti
Tamburu sa ticom sedefnom
Cure ce pred kucom pupiti
Nek se sorom digne prasina
Kad bataljon suknji marsira


Stade sve samo zivot prodje
Sine moj oci njene plave
Stize dan da u vojsku podjes
Lumpuju usijane glave

Sine moj sve su to barabe
Ne dam ja mog spomenka bokor
Derane drz' se tvoga babe
Nisi ti za taj jad i pokor bre


Solo na trubi, preradjen za gitaru:
    C
    |        .     |   .   |    .     |   .
E--12-13-13h12----12-----------12-15-13-----12-|
B--------------15------------------------------|
G----------------------------------------------|
D----------------------------------------------|
A----------------------------------------------|
E----------------------------------------------|

    G
    |     .     |   .   |    .     |    .
E--15-----------------------15-13-12--------|
B-----15-15-13-15----------------------15---|
G-------------------------------------------|
D-------------------------------------------|
A-------------------------------------------|
E-------------------------------------------|

    Am
    |        .     |   .   |    .     |    .
E---------------------------------12-----------|
B--15-13-15p13-12-13-----------13----15---13---|
G----------------------------------------------|
D----------------------------------------------|
A----------------------------------------------|
E----------------------------------------------|

    E
    |    .     |    .     |     .     |     .
E---------------------12-15-13-13-12-12----------||
B--12---12-13-15---15-------------------15-13-15-||
G------------------------------------------------||do kraja
D------------------------------------------------||pesme
A------------------------------------------------||
E------------------------------------------------||


Akordi:
C:  x 3 2 0 1 0
Dm: x x 0 2 3 1
E:  0 2 2 1 0 0
G:  3 2 0 0 0 3
Am: x 0 2 2 1 0