Djordje Balasevic - Ringispil

Transkripcija: Boris Gaspic
Home         : http://yurope.com/people/sen/The.Book.Of.Home/akordi



  Em      /H       /E      /H       Am      /G       /F#     /H
e|----------------|----------------|----------------|----------
H|--------0-------|--------0-------|3---1---1---0---|----------
G|----0-----------|0---0-2---0-----|----------------|2---------
D|2-4---2---------|--4---------4-2-|----------------|----------
A|----------------|----------------|----------------|----------
E|----------------|----------------|----------------|----------

  Em      /H       C#-5    H/D#     Em      /H     /E /H /E /D#
e|----------------|----------------|--------------|----------
H|--------0-------|----------------|--------------|----------
G|0---0-2---0-----|0-----0---------|--------------|----------
D|--4---------4-2-|--4-2---4-2-1-4-|2-------------|----------
A|----------------|----------------|--------------|----------
E|----------------|----------------|--------------|----------

(  C#-5 = x4565x  ;  H/D# = x6876x  )

D       /A         /D     H
Curi od jutros, od cetiri-pet,
Em       /H/G  C      /G
resilo nebo da potopi svet
D          /A  H
Nad gradom danima
             Em  /H  /E /H /E /D#
vise iste ulice

Poliva kisa, al to joj je zanat
Ma sve mi je ravno k'o severni Banat
Manje vise
I sa kisom i bez kise

Vreme se vuce ko teretni voz
Gdje li je veceras da promolim nos
klasika, konobar i "Cafe Macciato"
(dva secera molim)

Prolazi vreme al to mu je manir
ma sve je to plitko k'o plehani tanjir
i (?)                   
nigdje jedra na vidiku

 C/E D/F# G                            D
I daj    okreni taj ringispil u mojoj glavi

          H/D#        Em  /H
To ne zna nitko, samo ti

    G              D
Bez tebe, drveni konjici

C/E   D/F#
tuzno stoje

G                /H /C   D    /A
Dodi, iz plave boce se pojavi

    /D    H/D#      Em  /H
Bar jednu zelju ispuni

  G                 D     H
I dodaj svjetu malo boje, cudo moje

Vece se klati k'o prezreli klip
Teska vremena, a ja tezak tip
Pa gravitacija zacas uzima svoje

Slab sam ja igrac za subotnje guzve
Al' shvatam pomalo te pokretne spuzve
Neko pijan lakse zivot odrobija

Ded' okreni taj ringispil u mojoj glavi
To ne zna nitko, samo ti
Bez tebe drveni konjici
Tuzno stoje

Je, dodji, iz plave boce se pojavi
Bar jednu zelju mi ispuni
I dodaj svetu malo boje, cudo moje

Sustajem, odustajem
Pritiska me kao pegla
Javi se, pojavi se
Dodaj svetu malo vergla

Nekad si me cudila
Danas bi mi tako dobro legla
Dodaj malo ludila
Dodaj svetu -

I daj okreni...

***VERZIJA 2***
Transkripcija: sasayu1983 (sasayu1983@yahoo.com)


Tonalitet : Em

uvodni solo:					
                               ______________________________________
  Em					       |1.
e|----------7---------7---|--------10-8-8-7----|-------------------------------------|
h|----7-8-------7-8-------|-8-7-------------10 |-------7----10------7----10----------|
g|--9-----9---9-----9-----|-----9--------------|--7-9----7------7-9---7--------------|
d|------------------------|--------------------|-------------------------------------|
a|------------------------|--------------------|-------------------------------------|
E|------------------------|--------------------|-------------------------------------|
_____________________________________ __________________________________________
				     |2.					|
e|--10-10--8-8-7-7-----7-------------|------------7--------|--------------------|---------|
h|------------------/8---10-8-7------|--/8-7-8-10---8-7----|-8-7---8-7------7---|---------|
g|-----------------------------------|-------------------9-|-----9-----9--8---9-|-9-9-8-7-|
d|-----------------------------------|---------------------|--------------------|---------|
a|-----------------------------------|---------------------|--------------------|---------|
E|-----------------------------------|---------------------|--------------------|---------|

Akorde pretpostavljam da znate ali ajde kratko:
strofa : D H Em C
refren : G D D Em (prvi put posle ne)
Ko zna da svira ovo mu je dovoljno!Ako neko ne razume nek pise sta mu nije jasno!
Ajd zrdavo. Srecno!

***VERZIJA 3***
Transkripcija: tholek@inet.hr
Album        : Arena 2001



*    x 4    ("Ej, ajmo polakou")

/E    /D#

D		            B7   Em		    C
Curi od jutros od cetiri- pet,       resilo nebo da potopi svet. 
D             B7              Em    /D#
Nad gradom danima vise iste kulise. 
D		         B7           Em		C
Poleva kisa al' to joj je zanat, ma sve mi je ravno k'o severni Banat, 
      Em   B7                         Em    
manje vise,     i sa kisom i bez kise. 

/E    /D#

Vreme se vuce k'o teretni voz, gde li veceras da pomolim nos? 
Klasika: "Konobar, un cafe' macchiatto". Pa da. 
Prolazi vreme, al' to mu je manir, ma sve je to plitko k'o plekani tanjir. 
Izes sliku, nigde jedra na vidiku. 

  D     G		            D                B7         Em              
O, daj okreni taj ringispil u mojoj glavi. To ne zna ni'ko, samo ti. 
     G		   D          D7  
Bez tebe drveni konjici tuzno stoje.
G		         D	        B7        Em 
Dodji, iz plave boce se pojavi, bar jednu zelju ispuni 
  G                D       B7
i dodaj svetu malo boje, ej, cudo moje.

*    x 2    ("Dobro vece Istra. Dobro vece, dobri ljudi. Gde ste vi? 
              Dobro vece Osijek, Split, Rijekau Dobro vece, Hrvatska. 
              To su te reci. Treba li nekih vecih?")

Vece se klati k'o prezreli klip, teska vremena, a ja tezak tip - 
pa gravitacija  uzima svoje, o je. 
Slab sam ja igrac za subotnje guzve, al' s'vatam pomalo te pokretne spuzve: 
neko pijan lakse zivot odrobija. 

O, daj okreni... 

*    ("Deset godina, moji dragi. Kao stari gladijator da se vratim u 
       Arenu sa svim onim oziljcima od vremena koje je proslo. 
       Neki bi tako da me vide porazenog u ovoj Areni, 
       ali dok je meni vasu")

Gu
Sustajem ,odustajem, pritiska me kao cigla. 
Javi se, ne cigla - pegla, pojavi se, dodaj svetu malo vergla. 
Nekad si me cudila, o, danas bi mi tako legla. 
Dodaj malo ludila, dodaj svetu malo vergla. 

(O, daj okreni taj ringispil u mojoj glavi.)
               Sustajem ,odustajem, pritiska me kao pegla.
(To ne zna ni'ko, samo ti. Bez tebe drveni konjici tuzno stoje.) 
                Javi se, pojavi se, dodaj svetu malo vergla.
(Dodji, iz plave boce se pojavi, bar jednu zelju ispuni)
               O, nekad si me cudila, o, danas bi mi tako legla.
(i dodaj svetu malo boje, cudo moje. )
              Dodaj malo ludila, dodaj svetuu 

Ma, daj okreniu
  
Em

*
  
  Em 			           Am      /G       /F#     
E|----------------|----------------|----------------|----------|
H|--------0-------|--------0-------|3---1---1---0---|----------|
G|----0-----------|0---0-2---0-----|----------------|2---------|
D|2-4---2---------|--4---------4-2-|----------------|----------|
A|----------------|----------------|----------------|----------|
E|----------------|----------------|----------------|----------|

  D                            G	    B7
E|------------|---------------|------------|----------|
H|------------|-----------3-1-|1--0--0-----|0---------|
G|------0-2---|------0-2------|------------|---2--2---|
D|0-2-4-------|0-2-4----------|------------|----------|
A|------------|---------------|------------|----------|
E|------------|---------------|------------|----------|

  Em 			            Am      /G       /F#   B7      
E|----------------|----------------|----------------|----------|
H|--------0-------|--------0-------|3---1---1---0---|----------|
G|----0-----------|0---0-2---0-----|----------------|2---------|
D|2-4---2---------|--4---------4-2-|----------------|----------|
A|----------------|----------------|----------------|----------|
E|----------------|----------------|----------------|----------|

  Em               F#m7-5   B7      Em      
E|----------------|----------------|--------------|----------|
H|--------0-------|----------------|--------------|----------|
G|0---0-2---0-----|0-----0---------|--------------|----------|
D|--4---------4-2-|--4-2---4-2-1-4-|2-------------|----------|
A|----------------|----------------|--------------|----------|
E|----------------|----------------|--------------|----------|