Djordje Balasevic - Slow Motion

Transkripcija: Mr.Z (mr.z@mindless.com)
Home         : http://2akordi.net


A
Zivot je stari kuckin sin stalno se raspravljam sa njim 
         C#m
zivot je ofucani Holivudski film. 
           D       
Svi smo mi malo dramili 
       Hm                      E
cutali il' galamili u tom spektaklu. 

        D                     Hm
Neki su rodjeni za maske neki statiraju do daske 
      A                      F#m
ja sam pozitivno-negativan tip 
Hm                           D          E
i kao svi iz stare skole radim sve slow motion. 

Igram bez dublera sve sam sto nije prakticno to znam 
pomalo smiram pomalo briljiram 
partner sam raznim licima 
zvezdama i naivcima u tom spektaklu. 

Mozda i nisam neki biser ali sam barem svoj reziser 
sam za sebe smisljam zaplete i kraj. 
Koristeci uglavnom laku tehniku slow motion. 

        A
Od Mure pa do Morave neka me svi zaborave 
                     E
ako uopste ikom ista znacim. 
E
Sa samog ruba pameti stizu mi strasni saveti 
E                             A
al' ja bi da prozivim na svoj nacin. 
A
Odlaze zadnji vozovi biraju ljude lozovi 
                         E
i sve u svemu nemam lepe reci. 
E
Al' ja bi bas u ime to jos jednu popio 
                         A
i tesko da ce neko da me spreci. 

Zivot je stari kuckin brat sve manje sa njim vodim rat. 
I sve mi vise lici na pescani sat. 
U svakom zrnu neki dan 
u svakom danu neki san i keep on smiling. 

Necu da o tom pisem roman k'o svaki prosecan grandoman 
bicu srecan ako dovrsim svoj stih. 
Jer sati i minuti nisu culi za slow motion. 

Od Mure pa do Morave neka me svi zaborave...

Odlaze zadnji vozovi biraju ljude lozovi 
i sve u svemu nemam lepe reci. 
Al' ja bi bas u ime to jos jednu popio 
i tesko da ce neko da me spreci. 

Od Mure pa do Morave neka me svi zaborave 
al' ja bi da prozivim na svoj nacin. 
Odlaze zadnji vozovi biraju ljude lozovi... 
Sa samog ruba pameti stizu mi strasni saveti 
al' ja bi da prozivim na svoj nacin. 
      
***VERZIJA 2***
Transkripcija: Ivic


E||-----------------------------------------------------
B||--------5~---4~---5~---7------5--4--5-------5--4--5--
G||---------------------------------------6-------------
D||-----------------------------------------------------
A||-----------------------------------------------------
E||-----------------------------------------------------

Uvod:                                               
--------------5--9--9h10----9--7--9--7--5--5--7--5---
--7--5--4--5--------------|--------------------------
-----------------------------------------------------
-----------------------------------------------------
-----------------------------------------------------
-----------------------------------------------------
                                                  
--4--4-----4--7--7--7--7----5--5--5--4--4--4--4--5--
--------7-------------------------------------------
----------------------------------------------------
----------------------------------------------------
----------------------------------------------------
----------------------------------------------------

                                                              E  F#mG#    A    
--4--5--4-------------------------4-------------------------------------5--||
-----------7----------------5--7-----7--5-------------------------------5--||
--------------7--4--6--7-------------------7--6--6----4--6--1--2--5-----6--||
------------------------------------------------------------2--4--6-----7--||
------------------------------------------------------------2--4--6-----7--||
------------------------------------------------------------0--2--4--5-----||

Zivot je (A)stari kuckin sin, stalno se raspravljam sa njim,
Zivot je (C#m)ofucani holivudski film
Svi smo mi (D)malo dramili, cutali (Hm)il' galamili u tom spek(E)taklu E F#m G# 

Neki su (D)rodeni za maske, neki (Hm)statiraju do daske
Ja sam (A)pozitivno nega(F#m)tivan tip
I (Hm)kao svi iz stare skole (D)radim (Hm)sve slow (E)motion E F#m G# 

(A)Od (G#)Mu(A)re pa do Morave neka me svi zaborave
Ako uopste ikom ita (E)znacim
Sa samog ruba pameti stizu mi razni saveti,
Al' ja bih da prozivim na svoj (A)nacin

(A0O(G#)odla(A)ze zadnji vozovi, biraju ljude lozovi
I sve u svemu nemam lepe Ereci
Ali ja bih bas u ime to jos jednu popio
i teko da ce neko da me (A)spreci E F#m G#