Djordje Balasevic - Svirajte Mi Jesen Stize Dunjo Moja

Transkripcija: djavolica, Kristijan Vlasic, Risci


UVOD: x2
               Am7          Dsus4/F#     Fmaj7     Em
E|------------|------------|------------|------------|
B|------------|------------|------------|------------|
G|------------|7s9---------|7-----------|4h5-----7s4-|
D|--------7s5-|-----7h9p7-5|--------7s5-|------------|
A|------------|------------|------------|------------|
E|------------|------------|------------|------------|

Am             C                G
Toga jutra sam stigao putnickom klasom
   Dm              Am
Pa kuci sa stanice casom
     F       G       Am    Dsus4/F#
Kroz baste i precice znane

Am             C               G
A u vojsci sam stekao druga do groba
  Dm             Am
I hronicnu upalu zgloba
  F        G          Am   Am G F
Suvenir na strazarske dane

  Am  G  F  E
B|-5--3--1--0-|
G|-5--4--2--1-|

E           Am
Usao sam na prstima
C             G                  C       C G F
Mati bese vec budna i brzo se prekrstila

   C  G  F  E
B|-5--3--1--0-|
G|-5--4--2--1-|

E              Am
Rece proslo je k'o za cas
C             G                    C
Bas si stigao dobro jer svatovi su tu do nas
         E                F      E->Dm
Pa ce ti svirati a ti ces birati

   Am        E
E|---------|---------|
B|-1-----1-|-0-----0-|
G|---2-----|---1-----|
D|-----2---|-----2---|
A|-0-------|---------|
E|---------|-0-------|


Svadba bese k'o svadba, i sta da se prica
Parada pijanstva i kica
I poznata cura u belom

Vec po redu pozeleh im zdravlja i srece
Iz ruku mi otela cvece
I sakrila pogled pod velom

Tad me spazise cigani
Kum je trazio pesmu al' ja sam stig'o briga njih

Sirok osmeh i zlatan zub
Znam da nije ti lako al' danas nemoj biti grub
Nego zapovedi sta cemo svirati

    E                             F           Dm
    Svirajte mi jesen stize dunjo moja, jesen rana
    G           F      G  C      A7
    Nek zazvone tambure u transu
    Dm           E         Am   G     C    A7 
    Znam da nije pesma ova za veselje i svatovac
    Dm           G         C
    Al' ja moram cuti tu romansu

    Svirajte mi jesen stize dunjo moja, al' polako
    Da mi ne bi koja rec promakla
    Sklonte case i bokale, razbio bih svet od sale
    Da je samo slucajno od stakla
          E
    Dunjo moja

Retko odlazim kuci, a pisem jos redje
I slike su bledje i bledje
Pa lepe potiskuju ruzne

Al' nekad porucim pice i tako to krene
Pa stignem u svatove njene
Sve prave su ljubavi tuzne 

Nikom ne pricam o tome
Brzo dodje taj talas, i znam da cu da potonem 

Spas mi donose cigani
Oni imaju srce za svakog od nas briga njih
Oni me pitaju sta da sviraju

    Svirajte mi jesen stize dunjo moja, jesen rana
    Nek zazvone tambure u transu
    Znam da nije pesma ova za veselje i svatova
    Al' ja moram cuti tu romansu

    Svirajte mi jesen stize dunjo moja, polagano
    Da mi ne bi koja rec promakla
    Sklonte case i bokale, razbio bih svet od sale
    Da je samo slucajno od stakla
    Dunjo moja

KRAJ
Am7, Dsus/F#, Fmaj7, Dsus/F#, Am^

---------------
Am7      X02010
Dsus4/F# XX4035
Fmaj7    XX3210
Am^      577555
---------------


***VERZIJA 2***

Am             C                G
Toga jutra sam stigao putnickom klasom
   Dm              Am
Pa kuci sa stanice casom
     F       G       Am    Dsus4 D Dsus2
Kroz baste i precice znane

Am             C               G
A u vojsci sam stekao druga do groba
  Dm             Am
I hronicnu upalu zgloba
  F        G          Am   Am G F
Suvenir na strazarske dane

E           Am
Usao sam na prstima
C             G                  C       C G F
Mati bese vec budna i brzo se prekrstila


E              Am
Rece proslo je k'o za cas
C             G                    C
Bas si stigao dobro jer svatovi su tu do nas
         E                F      E Dm
Pa ce ti svirati a ti ces birati

...

    E                             F           Dm
    Svirajte mi jesen stize dunjo moja, jesen rana
    G           G7        C      A7
    Nek zazvone tambure u transu
    Dm           E         Am   Am10  Am9  A7 
    Znam da nije pesma ova za veselje i svatovac
    Dm           G         C
    Al' ja moram cuti tu romansu

    Svirajte mi jesen stize dunjo moja, al' polako
    Da mi ne bi koja rec promakla
    Sklonte case i bokale, razbio bih svet od sale
    Da je samo slucajno od stakla
          E
    Dunjo moja

...



 ***VERZIJA 3***
 
Uvod na bas-gitari, a na obicnoj zvuci ovako:

A:----------|-5/7--------|-5--------|-3----3/5-|-2----|
E:------5-3-|--------5-3-|------5-3-|----------|------|
A:----------|-5/7--------|-5--------|-3----3^5-|-2----|
E:------5-3-|--------5-3-|------5-3-|----------|------|


I na kraju pesme je slicno, samo sa odgovarajucim akordima:

e:----------|---------5---------|-------3---------|-------1---------|
h:----------|-------5---5-------|-----3---3-------|-----1---1-------|
g:----------|-----5-------5-----|---4-------4-----|---2-------2-----|
D:----------|-------------------|-----------------|-----------------|
A:----------|-5/7---------------|-5---------------|-3-----------3/5-|
E:------5-3-|---------------5-3-|-------------5-3-|-----------------|

e:-------0---------|---------5---------|-------3---------|
h:-----0---0-------|-------5---5-------|-----3---3-------|
g:---1-------1-----|-----5-------5-----|---4-------4-----|
D:-----------------|-------------------|-----------------|
A:-2---------------|-5/7---------------|-5---------------|
E:-------------5-3-|---------------5-3-|-------------5-3-|

e:-------1---------|-------0---------|-0------|
h:-----1---1-------|-----0---0---0---|-1------|
g:---2-------2-----|---1-------1---1-|-2------|
D:-----------------|-----------------|-2------|
A:-3-----------3/5-|-2---------------|-0------|
E:-----------------|-----------------|--------|

Postoji i prelaz u pesmi kod delova kao sto je:... 
suvenir na strazarske dane

prelaz:
e------------
h-5--3--1--0-
g-5--4--2--1-
D------------
A------------
E-5--3--1--0-

            Am      [A-H]
usao sam na prstima
C             G                  Am
mati bese vec budna i brzo se prekrstila

(isti onaj) prelaz

C
rece mi...  



***VERZIJA 4***
Transkripcija: Nenad Djakovic

Uvod na basu:
G-----7/9-----7-------5--5/7-2--
D-7-5-----7-5-----7-5-----------
A-------------------------------
E-------------------------------