Dzukele - Amerika

Transkripcija: Nikola Kolarovic (nikolak@bigfoot.com)


 Legenda:
  b - bend
  r - release bend
  p - pull off

INTRO:
     hold bend
E---------------------------------------
H------17-------------------------------
G-16b18-----18r16p14--------------------
D---------------------16-16~~-----------
A--------------------------------------- 
E--------------------------------------- 

     hold bend
E---------------------------------------
H------17------17b19-17b19~~r-----------
G-16b18---------------------------------
D---------------------------------------  (poslednji
A---------------------------------------   put)
E--------------------------------------- 

  Dosta je tesko zapisati i procitati(ali ne i odsvirati)... 

PEVANJE & REFREN:

  F#                     A           H
E----------------------------------------------
H----------------------------------------------
G----------------------------------------------
D-4--44-44-4--4-44-44-4--7--77-77-7--9-99-99-9- 
A-4--44-44-4--4-44-44-4--7--77-77-7--9-99-99-9-
E-2--22-22-2--2-22-22-2--5--55-55-5--7-77-77-7-

Od Aljaske do Meksika prostire se drzava
Van vremena i prostora, misli da je najveca
Polje, suma, livade, gradovi i planine
To su nase slavne Sjedinjene Drzave

Amerika, Amerika, bogata i ponosna
Amerika, Amerika, bomila klovnova
Amerika, Amerika, ja sam sretan sto sam tu
Amerika, Amerika

Hvala vam za sve sto ste ucinili
To vam nikad necemo zaboraviti
Hvala vam za sve sto ste uradili
To vam u zivotu necemo oprostiti



POSLE REFRENA (w/ wah):
     hold bend                     hold bend
E-----------------------------|--------------------------------
H------17---------------------|------17-----------------17b19--
G-16b18-----18r16p14----------|-16b18-----18r16p14-------------
D---------------------16-16~~-|---------------------16---------
A-----------------------------|--------------------------------
E-----------------------------|--------------------------------

     hold bend			   hold bend
E-----------------------------|---------------------------
H------17---------------------|------17------17b19-17~----
G-16b18-----18r16p14----------|-16b18---------------------
D---------------------16-16~~-|---------------------------
A-----------------------------|---------------------------
E-----------------------------|---------------------------
     hold bend                     hold bend
E-----------------------------|--------------------------------
H------17---------------------|------17-----------------17b19--
G-16b18-----18r16p14----------|-16b18-----18r16p14-------------
D---------------------16-16~~-|---------------------16---------
A-----------------------------|--------------------------------
E-----------------------------|--------------------------------
     hold bend
E-----------------------------|------------------------------------
H------17---------------------|------------------------------------
G-16b18-----18r16p14----------|--14------14--16b18r16p14-14--------
D---------------------16-16~~-|------16---------------------16-16~-
A-----------------------------|------------------------------------
E-----------------------------|------------------------------------


Ne treba nam vasa masturbacija
Ne treba nam vasa mlada generacija
Ne treba nam vasa prostitucija
Ne treba nam vasa administracija



E-----------------------------------------------------------------
H-----------------------------------------------------------------
G-----------------------------------------------------------------
D-4--4----4-4-9---9---9---9---7--7--7--7--7/9---9---9--9----------
A-4--4----4-4-9---9---9---9---7--7--7--7--7/9---9---9--9----------
E-2--2--0-2-2-7---7---7---7---5--5--5--5--5/7---7---7--7----------

E-----------------------------------------------------------------
H-----------------------------------------------------------------
G-----------------5--5---2--2---4--4-44-44-4----------------------
D-7--7---2--2-2---5--5---2--2---4--4-44-44-4------------------4---
A-7--7---2--2-2---3--3---0--0---2--2-22-22-2--2-3-2-3-2-0-----4---
E-5--5---0--0-0-------------------------------------------2-0-2---


--------------------------------------------------------------
 Sve ispravke i dopune su dobrodosle! (nikolak@bigfoot.com)