Dzukele - Kockam Se S Tobom

Transkripcija: Nikola Kolarovic (nikolak@bigfoot.com)
Home         : http://www.yutabs.f2s.com


INTRO:
E---------------------------------------
H---------------------------------------
G---------------------------------------
D--5----7-7--5--77-----5----7-7--5--7-x-
A--5----7-7--5--77-----5----7-7--5--7-x-   X 4
E-/3----5-5--3--55-----3----5-5--3--5-x- 

E-----------------------------
H-----------------------------
G-----------------------------
D-2--2-2-2--4-4-4-4-5-5---5-5- 
A-2--2-2-2--4-4-4-4-5-5---5-5-  X 4
E-0--0-0-0--0-0-0-0-0-0---3-3-


VERSE:
(isto kao gore, samo sa denfovanjem dlanom)

  PM................................
E----------------------------------------------
H----------------------------------------------
G----------------------------------------------
D--------------------------------------5--5----
A-2---2--2--2--2---4--4--4--4---5--5---5--5----
E-0---0--0--0--0---0--0--0--0---0--0---3--3----
      Ti           volis da me  gledas iznutra
      Hoces o      meni da      znas   sve
      Ja ti        pricam       duboko i kratko
      A ti         samo trazis  razloge

E----------------------------------------------
H----------------------------------------------
G-9-9-9-9-9-9-9-9-9-9-9--12--12-12-------------
D-9-9-9-9-9-9-9-9-9-9-9--12--12-12-------------  X 4
A-7-7-7-7-7-7-7-7-7-7-7--10--10-10-------------
E----------------------------------------------


< isto kao prethodna strofa >
  Potpuno slobodan pokusavam da volim
  Ono sto ce voleti svi
  Da li ces ikada shvatiti
  Koliko das
  Toliko ces i dobiti


< izvinjavam se za los tajming, ali lako je uhvatiti ako slusas >
   C            G               Em
E--------------------------------------------------------------------
H--------------------------------------------------------------------
G--5--555555-5-------------------------------------------------------
D--5--555555-5--5--5-5-5--5--5--2----2--2--2--2--2---2--2-2-2---2----
A--3--333333-3--5--5-5-5--5--5--2----2--2--2--2--2---2--2-2-2---2----
E---------------3--3-3-3--3--3--0----0--0--0--0--0---0--0-0-0---0----
   Kockam se sa tobom i   razmisljam da li cu uspeti da dokazem sve

   C            G                 Em         D      
E--------------------------------------------2-2-2--3-2--------
H--------------------------------------------3-3-3--3-3--------
G--5--555555-5-------------------------------2-2-2--2-2--------
D--5--555555-5--5--5-5-5---5--5---2----2--2--0-0-0--0-0--------
A--3--333333-3--5--5-5-5---5--5---2----2--2--------------------
E---------------3--3-3-3---3--3---0----0--0--------------------
 Zivim svaki dan kao da je zadnji   da li ti osecas isto?

      PM............
E---------------------
H---------------------
G---------------------
D--5--77777777777777--
A--5--77777777777777--
E--3--55555555555555-- 

  Upravo si pao s drveta
  Razmisli kuda ces dalje 
  Nema vremena da pokupis mrvice
  Nema vremena da pokupis kamenje

  Kockam se sa tobom i razmisljam
  Da li cu uspeti da dokazem sve
  Zivim svaki dan kao da je zadnji
  Da li ti osecas isto?

E---------------------------------------
H---------------------------------------
G---------------------------------------
D--5----7-7--5--77-----5----7-7--5--7-x-
A--5----7-7--5--77-----5----7-7--5--7-x-   X 2
E-/3----5-5--3--55-----3----5-5--3--5-x- 

E---------------------------------------
H---------------------------------------
G-4-4-4-4-4-4-4-4-4-4-4--7--7-7---------
D-4-4-4-4-4-4-4-4-4-4-4--7--7-7---------  X 2
A-2-2-2-2-2-2-2-2-2-2-2--5--5-5---------
E---------------------------------------

E-------------------------------------------------------
H-------------------------------------------------------
G------------------------4-4-4-4-4-4-4-4-4-4-4--7--7-7--
D------------------------4-4-4-4-4-4-4-4-4-4-4--7--7-7--
A---------------0----0-3-2-2-2-2-2-2-2-2-2-2-2--5--5-5--
E-2--0-2-3--2-3----3------------------------------------

E-------------------------------------------------------
H-------------------------------------------------------
G--------------------------------9-9-9-9-9-9-9-12-12-12-
D--------------------------------9-9-9-9-9-9-9-12-12-12-
A---------------0----0-2--0-2-5--7-7-7-7-7-7-7-10-10-10-
E-2--0-2-3--2-3----3------------------------------------

  Dalje svira sa wah-wah pedalom jednu od tema i to je to...