Dzukele - San - Bas

Transkripcija: Ivan Vasic (ivasic@cent.co.yu)
Home         : http://www.tablature.co.yu



Glavni deo (ide kroz strofe i intro) :

E-------------7---------7-7-7-7-7--|
A--7--7-7-7-7---7-8-7-8------------|
D----------------------------------|
G----------------------------------|

(timing je ovde dobro odradjen - obrati paznju na razmak 
izmedju prva 2 tona)

Deo neposredno pre refrena (kad upadnu gitare):
E-0------------------------------------|
A---7-7-7\9-9-9-9\10-10-10-10\12-12-12-|
D--------------------------------------|
G--------------------------------------|

Refren:
E-0----------------------------------------------|
A---7--7--8-2-2-2-2--3-3---10-10-10-10--10-12-12-|
D------------------------------------------------|
G------------------------------------------------|

E-0------------------------3-3-3-3-3-3-3-3-|
A---7--7--8-2-2-2-2--3-3-------------------|
D------------------------------------------|
G------------------------------------------|

E-0-------------------------------------------------|
A---7--7--8-2-2-2-2--3-3---10-10-10-10-10-10-10-10--|
D---------------------------------------------------|
G---------------------------------------------------|

E-0-----------------------3-3-3-3-3-3-3-3-|
A---7--7--8-2-2-2-2--3-3------------------|
D-----------------------------------------|
G-----------------------------------------|

kraj refrena.

Sada ima puno 'delova' ...

Deo 1:
E------------------------------------------0-0-0-0-0-0-0-0-0-0-0--|
A-0-0-0-0-0-0-0-0-0-0-0-0-0-0-0--5h7-7-5h7------------------------|
D-----------------------------------------------------------------|
G-----------------------------------------------------------------|

Deo 2: (odmah posle dela 1)
E-6-6-6-x-x-6--6--6-6-6-x-x-6--6-----------------------------------|
A--------------------------------5-5-5-x-x-5--5--5-5-5-x-x-5-------|
D------------------------------------------------------------------|
G------------------------------------------------------------------|

E-6-6-6-x-x-6--6-------------3---3---3---3---3------|
A-----------------3-3-3-3-3-------------------------|
D---------------------------------------------------|
G---------------------------------------------------|

E-6-6-6-x-x-6--6--6-6-6-x-x-6--6------------------------|
A--------------------------------5-5-5-x-x-5--5-----8-7-|
D-----------------------------------------------7-5-----|
G-------------------------------------------------------|

E-6-6-6-x-x-6--6--6-6-6-x-x-6--6--5-5-5-5-5-5-5-5-5-6-5-6-5-|
A-----------------------------------------------------------|
D-----------------------------------------------------------|
G-----------------------------------------------------------|

kraj dela 2, posle ide refren.