Dzukele - San

Transkripcija: Ivan Vasic (ivasic@cent.co.yu)
Home         : http://www.tablature.co.yu


Uvod:

Gitara 1           
E||----------------------------------------|
H||----------------------------------------|
G||--9-------------------------------------|
D||--9-------------------------------------|
A||--7-------------------------------------|
E||--0-------------------------------------|

Gitara 2
E||--------------------------------------------------|
H||--------------------------------------------------|
G||--------------------------------------------------|
D||--------------------------------------------------|
A||--------------------------------------------------|
E||-12-12-12-12-12-12-12-12-12-12-12-12-12-12-12-12--|

*Svirati 2 puta ovo. Znaci na jedan gornji akord idu 16 
"dvanaestice" ...

Onda:
E||------12-----12/-------------------------------|
H||-7\12---12---12/-------------------------------|
G||-----------------------------------------------|
D||-----------------------------------------------|
A||-----------------------------------------------|
E||-----------------------------------------------|

I sada pocinje "rokanje" ....

Gitara 1
E||-------------------------------------|----------------------------------|
H||-------------------------------------|----------------------------------|
G||-9--9-9-9-9-9-9-11-11-11-11-11-11-11-|-12-12-12-12-12-12-12--9-9-------9|
D||-9--9-9-9-9-9-9-11-11-11-11-11-11-11-|-12-12-12-12-12-12-12--9-9-------9|
A||-7--7-7-7-7-7-7-9--9--9--9--9--9--9--|-10-10-10-10-10-10-10--7-7-------7|
E||-0--0-0-0-0-0-0-0--0--0--0--0--0--0--|-0--0--0--0--0--0--0---0-0-5-7-8-0|

------------------------------|-----------------------12---------||
------------------------------|--------------------------12------||
-9-9-9-9-9-9-9--7-7-7-7-7-7-7-|-6-6-6-6-6-6-6---------------12---||
-9-9-9-9-9-9-9--7-7-7-7-7-7-7-|-6-6-6-6-6-6-6--------------------||
-7-7-7-7-7-7-7--5-5-5-5-5-5-5-|-4-4-4-4-4-4-4------2-----------2-||
-0-0-0-0-0-0-0--0-0-0-0-0-0-0-|-0-0-0-0-0-0-0--3-2-0-----------0-||

Gitara 2 (dok svira gitara 1)
E||--------------------------------|-----------------7--------|
H||--------------------------------|-----------------9--------|
G||--------------------------------|-----------------9--------|
D||--------------------------------|-----------------9--------|
A||--7-7-7-7-7--7-7-7-7-7-7-7--7-7-|--7-7-7-7-7--7-7-7--------|
E||--0-0-0-0-0--0-0-0-0-0-0-0--0-0-|--0-0-0-0-0--0-0-0--------|

--------------------------------------|-----------------------7--||
--------------------------------------|-----------------------9--||
--------------------------------------|-----------------------9--||
----------------11-11-11-11-11--11-11-|-12-12-12-12-12--12-12-9--||
-7-7-7-7-7--7-7-9--9--9--9--9---9--9--|-10-10-10-10-10--10-10-7--||
-0-0-0-0-0--0-0-0--0--0--0--0---0--0--|-0--0--0--0--0---0--0--0--||

To je sve bio uvod :))


Sada idu strofice, svira samo bas a gitara ubacuje 
"malecne" zezalice ...

Na jednom mestu ide : (morate da slusate song)
E||---------------------------------------|
H||---------------------------------------|
G||---------------------------------------|
D||---------------------------------------|
A||---------------------------------------|
E||--5----7----8----7----------------7h8--|

pa onda uvod u refren:
E||-------------------------------------------|--||
B||-------------------------------------------|--||
G||--9-9-9\11-11-11-11\12-12-12-12\14-14-14---|--||
D||--9-9-9\11-11-11-11\12-12-12-12\12-12-12---|--||
A||--7-7-7\9--9--9--9\-10-10-10-10\12-12-12---|--||
E||--0-0-0-0----------------------------------|--||


Refren:
E||-------------------------------|--------------------------------|
B||-------------------------------|--------------------------------|
G||---9-10-4-5--12-12-12-12-14-14-|---9-10-4-5--5------------------|
D||-9-9-10-4-5--12-12-12-12-14-14-|-9-9-10-4-5--5--5-5-5-5-5-5-5-5-|
A||-7-7-8--2-3--10-10-10-10-12-12-|-7-7-8--2-3--3--5-5-5-5-5-5-5-5-|
E||-0-0-0-------------------------|-0-0-0----------3-3-3-3-3-3-3-3-|
                                    P.M.............
                                                          
------------------------------------|------------------------------||
------------------------------------|------------------------------||
---9-10--4--4--5--12-12-12-12-12-12-|---9-10-4-4-5-----------------||
-9-9-10--4--4--5--12-12-12-12-12-12-|-9-9-10-4-4-5-5-5-5-5-5-5-5-5-||
-7-7-8---2--2--3--10-10-10-10-10-10-|-7-7-8--2-2-3-5-5-5-5-5-5-5-5-||
-0-0-0------------------------------|-0-0-0--------3-3-3-3-3-3-3-3-||
                                      P.M............

Znam da ima jos nekih delova koje nisam ubacio, ali zar nije 
dovoljno komplikovano ??

Ako nekome ocajnicki treba neka mi potrazi...