Ekatarina Velika - Ekv - Hodaj

Transkripcija: Johnny - johnny47ns@yahoo.com
Album        : Ekatarina Velika (1984)


uvod:
 E   A   C#m   D

(uz sva 4 akorda)
E-12-11----------11----------11------
H-------12-10-12----12-10-12----12~~-
G------------------------------------
D------------------------------------
A------------------------------------
E------------------------------------

Refren:
  E                     D
G-9-99-------9-99-------7-77-------7-77------
D--------------------------------------------
A--------------------------------------------
E-----7-9-7------7-9-7------5-7-5------5-7-5-
  Hooooooooooooooooooooodaj,

  C#m                   D
D-6-66-------6-66-------7-77-------7-77----9h11-9~-
G---------------------------------------7h9--------
A--------------------------------------------------
E-----7-9-7------7-9-7------5-7-5------------------
  HooooooooooooooooooooodAJ!


Strofa(1):
  H                A
D----------------|----------------
G----------------|----------------
A----------7-6-9-|-------------7--
E-7--7--7--------|-5--5--5--------


Strofa(2):
  H                A
D----------------|----------------
G----------------|----------------
A-------------9--|-------------7--
E-7--7--7--------|-5--5--5--------


H                  H                     \
 Na vrscima prstiju, u noc bez meseca     |
A  A                                      |
 Hodaj                                    |
H                   H                      > Strofa(1)
 Sa dahom u usima i srcem u petama        |
A  A                                      |
 Hodaj                                   /

H                    A                             \
 Kao zena u stiklama, take a walk on the wild side  |
H                  A                                > Strofa(2)
 I strojevim korakom, na granici...                /
    E      D              \
 Ukusaaaaaaaaaaa           |
 C#m         D             > Refren
 Hooooooooooodaj          /

H                    H                         \
 Sa parom tek stesih, glatkih nogu do pojasa    |
A  A                                            |
 Hodaj                                          |
H               H                               > Strofa(1)
 I ritmom uzdaha u pulsu prolaznika             |
A     A                                         |
 Hodaj, hodaj                                  /

H                  A                   \
 Biranim ulicama u grbavim oblacima     |
H                           A           > Strofa(2)
 Jos krupnijim koracima, na zvonkim... /
      E       D      \
 Jezicimaaaaaaaaa     |
 C#m         D        |
 Hooooooooooodaj      |
 E         D          |
 Hooooooooodaj         > Refren
 C#m       D          |
 HooooooooodAJ        |
 E         D          |
 Hooooooooodaj        |
 C#m       D          |
 HooooooooodAJ       /

   . . .

* Nije bas zahvalno svirati bez bass linija, pa sam i njih napisao
* pored teksta je oznaceno koja se bass deonica svira