Film - Srce Na Cesti

Transkripcija: Ekipa
Home         : http://www.geocities.com/Nashville/Stage/2457


Am              C        F           C
Vozio sam prema gradu stodvadeset na sat
Am        C      F        C
Nisam bio pijan, a ni napusen
Am       C       F        C
Cist kao ruza sa suncem u ocima
Am              C        F           C
Vozio sam prema gradu stodvadeset na sat.

Vidjeo sam kao mases i oduzeo gas
Usla si u moja kola i svezala pojas.

    Am                  C
    A na radiju je bila ljubavna pjesma
         F                C
    Moja ruka na tvom ramenu
    Am                  C
    Tamo na cesti mi je ostalo srce
       F           Am
    Na vrucem asfaltu.

Milion kilometara od nigdje
Na autoputu Bratstva-jedinstva
Od Dilja prve rupe
Osjetim miris krvi i benzina.

A na radiju je bila ljubavna pjesma
Moja ruka na tvom ramenu
Tamo na cesti mi je ostalo srce
Na vrucem asfaltu.

************
Motiv: 'Srce na cesti'
Transkripcija: Damir (damir.Kahrimanovic@jk.uni-linz.ac.at)
Home         : http://2akordi.net
 

e ---------------------------------------------------------
H ---------------------------------------------------------
G ---0-3------------------------0-3------------------------
D -0-----5-3-0-0--------------0-----5-3-0-0----------------
A ---------------3-1-1-----1----------------3-1-1-----5----
E ---------------------3-1------------------------3-1------

e ---------------------------------------------------------
H ---------------------------------------------------------
G ---0-3------------------------0-3------------------------
D -0-----5-3-0-0--------------0-----5-3-0-0----------------
A ---------------3-1-1-----1----------------3-1-1----------
E ---------------------3-1------------------------3-1-3----