Galija - Da Li Si Spavala

Transkripcija: polly


Gm        D       Gm       D
Da li si spavala, da li si sanjala
Gm       F       B  Hdim
Kako se rusi Avala
Cm               Gm
Da li te nervira kad ti iz svemira
D             Gm
Posaljem leptira.

Da li si sanjala kako je nestala
Voda iz plavog Dunava
Da li si patila kada si shvatila
Da si me izgubila.

F        B            F       B
Naci ces cvet sto po meni mirise
F         B         D   Gm
Naci ces cvet koji nestaje
F         B          F        B
Naci ces cvet sto po meni mirise
F        B        D Gm
Bice to cvet koji umire.

Da li si sanjala kako sa istoka
Putuje tajna poruka
Kada me ne bude, neka te probude
Talasi pozude.

Naci ces cvet sto po meni mirise
Naci ces cvet koji nestaje
Naci ces cvet sto po meni mirise
Bice to cvet koji umire.


***VERZIJA 2***
Transkripcija: alko roker


Gitara                         3x            
E||----------------------------||--------------------------|
B||---------3-----------3------||--------3-----------1-----|
G||*-----0-----0-----2-----2--*||-----0-----0-----2-----2--|
D||*--------0-----------0-----*||--------0-----------3-----|
A||---------------0------------||--------------------------|
E||---3------------------------||--3-----------1-----------|

--------------------------|--------------------------|
--------3-----------3-----|--------4-----------4-----|
-----3-----3-----4-----4--|-----5-----5-----5-----5--|
--------3-----------4-----|--------5-----------5-----|
--1-----------2-----------|--3-----------------------|
--------------------------|--------------3-----------|

--------------------------|--------------------------|
--------3-----------3-----|--------1-----------3-----|
-----3-----3-----3-----3--|-----2-----2-----2-----2--|
--------5-----------5-----|--------3-----------0-----|
--------------5-----------|--------------0-----------|
--3-----------------------|--1-----------------------|

                             3x          
|----------------------------||--------------------------|
|---------3-----------3------||--------3-----------1-----|
|*-----0-----0-----2-----2--*||-----0-----0-----2-----2--|
|*--------0-----------0-----*||--------0-----------3-----|
|---------------0------------||--------------------------|
|---3------------------------||--3-----------1-----------|

--------------------------|--------------------------|
--------3-----------3-----|--------4-----------4-----|
-----3-----3-----4-----4--|-----5-----5-----5-----5--|
--------3-----------4-----|--------5-----------5-----|
--1-----------2-----------|--3-----------------------|
--------------------------|--------------3-----------|

--------------------------|--------------------------|
--------3-----------3-----|--------1-----------3-----|
-----3-----3-----3-----3--|-----2-----2-----2-----2--|
--------5-----------5-----|--------3-----------0-----|
--------------5-----------|--------------0-----------|
--3-----------------------|--1-----------------------|
                                                           2x
|----------------------------||---------1-----------1------||
|---------3-----------3------||---------1-----------3------||
|*-----0-----0-----2-----2--*||*-----2-----2-----3-----3--*||
|*--------0-----------0-----*||*--------3-----------3-----*||
|---------------0------------||---------------1------------||
|---3------------------------||---1------------------------||

                                                        2x 
--------0-----------3-----||---------1-----------1------||--------0----|
--------1-----------3-----||---------1-----------3------||--------1----|
-----2-----2-----3-----3--||*-----2-----2-----3-----3--*||-----2-----2-|
--------2-----------0-----||*--------3-----------3-----*||--------2----|
--0-----------------------||---------------1------------||--0----------|
--------------3-----------||---1------------------------||-------------|

                             3x
|----------------------------||
|---------3-----------3------||
|*-----0-----0-----2-----2--*||
|*--------0-----------0-----*||
|---------------0------------||
|---3------------------------||



***VERZIJA 3***
Transkripcija: Sale (goma@pop.transit.ru)
Home         : http://yurope.com/people/sen/The.Book.Of.Home/akordi


Gm        D       Gm       D
Da li si spavala, da li si sanjala
B       F       Gm  D
Kako se rusi Avala
Cm               Gm
Da li te nervira kad ti iz svemira
D             Gm
Posaljem leptira.

Da li si sanjala kako je nestala
Voda iz plavog Dunava
Da li si patila kada si shvatila
Da si me izgubila.

B        F           B        F
Naci ces cvet sto po meni mirise
B        F         Gm   D
Naci ces cvet koji nestaje
B        F           B        F
Naci ces cvet sto po meni mirise
B         F         Gm D
Bit ce to cvet koji umire.

Da li si sanjala kako sa istoka
Putuje tajna poruka
Kada me ne bude, neka te probude
Talasi pozude.

Naci ces cvet sto po meni mirise
Naci ces cvet koji nestaje
Naci ces cvet sto po meni mirise
Bit ce to cvet koji umire.


***VERZIJA 4***
Transkripcija: Ivan Vasic (ivasic@cent.co.yu)
Home         : http://www.tablature.co.yu


[Gm]kada si [D]spavala [Gm]da li si [D]sanjala
[B]kako se [F]rusi ava[B]la [G7]
[Cm]da li te [Cm]nervira [Gm]kad ti iz svemira
[D]posaljem leptir[Gm]ra [D]

da li si sanjala kako je nestala
voda iz plavog dunava
da li si patila kada si shvatila
da si me izgubila

ref. 
[B]naci ces [F]cvet sto po [B]meni miri[F]se
[B]naci ces [F]cvet koji [Gm]nesta[D]je
[B]naci ces [F]cvet sto po [B]meni mir[F]se
[B]bice to [F]cvet koji [Gm]umi[D]re

da li si sanjala kako sa istoka
putuje tajna poruka
kada me ne bude neka te probude
talasi pozude